  0
SECTION
  2
HEADER
  9
$ACADVER
  1
AC1009
  9
$INSBASE
 10
0.0
 20
0.0
 30
0.0
  9
$EXTMIN
 10
-450.0
 20
-673.91620263281266
 30
0.0
  9
$EXTMAX
 10
450.0
 20
664.12726000000021
 30
0.0
  9
$LIMMIN
 10
0.0
 20
0.0
  9
$LIMMAX
 10
0.0
 20
0.0
  9
$ORTHOMODE
 70
     0
  9
$REGENMODE
 70
     1
  9
$FILLMODE
 70
     1
  9
$QTEXTMODE
 70
     0
  9
$MIRRTEXT
 70
     1
  9
$DRAGMODE
 70
     2
  9
$LTSCALE
 40
25.399999999999999
  9
$OSMODE
 70
   231
  9
$ATTMODE
 70
     1
  9
$TEXTSIZE
 40
0.0
  9
$TRACEWID
 40
1.0
  9
$TEXTSTYLE
  7
STANDARD
  9
$CLAYER
  8
DATA
  9
$CELTYPE
  6
BYBLOCK
  9
$CECOLOR
 62
   256
  9
$DIMSCALE
 40
1.0
  9
$DIMASZ
 40
0.18
  9
$DIMEXO
 40
0.0625
  9
$DIMDLI
 40
0.38
  9
$DIMRND
 40
0.0
  9
$DIMDLE
 40
0.0
  9
$DIMEXE
 40
0.18
  9
$DIMTP
 40
0.0
  9
$DIMTM
 40
0.0
  9
$DIMTXT
 40
0.18
  9
$DIMCEN
 40
0.09
  9
$DIMTSZ
 40
0.0
  9
$DIMTOL
 70
     0
  9
$DIMLIM
 70
     0
  9
$DIMTIH
 70
     1
  9
$DIMTOH
 70
     1
  9
$DIMSE1
 70
     0
  9
$DIMSE2
 70
     0
  9
$DIMTAD
 70
     0
  9
$DIMZIN
 70
     0
  9
$DIMBLK
  1

  9
$DIMASO
 70
     1
  9
$DIMSHO
 70
     1
  9
$DIMPOST
  1

  9
$DIMAPOST
  1

  9
$DIMALT
 70
     0
  9
$DIMALTD
 70
     2
  9
$DIMALTF
 40
25.399999999999999
  9
$DIMLFAC
 40
1.0
  9
$DIMTOFL
 70
     0
  9
$DIMTVP
 40
0.0
  9
$DIMTIX
 70
     0
  9
$DIMSOXD
 70
     0
  9
$DIMSAH
 70
     0
  9
$DIMBLK1
  1

  9
$DIMBLK2
  1

  9
$DIMSTYLE
  2
STANDARD
  9
$DIMCLRD
 70
     0
  9
$DIMCLRE
 70
     0
  9
$DIMCLRT
 70
     0
  9
$DIMTFAC
 40
1.0
  9
$DIMGAP
 40
0.09
  9
$LUNITS
 70
     2
  9
$LUPREC
 70
     4
  9
$SKETCHINC
 40
0.1
  9
$FILLETRAD
 40
0.0
  9
$AUNITS
 70
     0
  9
$AUPREC
 70
     0
  9
$MENU
  1
acad
  9
$ELEVATION
 40
0.0
  9
$PELEVATION
 40
0.0
  9
$THICKNESS
 40
0.0
  9
$LIMCHECK
 70
     0
  9
$BLIPMODE
 70
     0
  9
$CHAMFERA
 40
0.0
  9
$CHAMFERB
 40
0.0
  9
$SKPOLY
 70
     0
  9
$TDCREATE
 40
2457010.5775694451
  9
$TDUPDATE
 40
2457010.5831910302
  9
$TDINDWG
 40
0.0004340278
  9
$TDUSRTIMER
 40
0.0004340162
  9
$USRTIMER
 70
     1
  9
$ANGBASE
 50
0.0
  9
$ANGDIR
 70
     0
  9
$PDMODE
 70
     1
  9
$PDSIZE
 40
-2.0
  9
$PLINEWID
 40
0.0
  9
$COORDS
 70
     1
  9
$SPLFRAME
 70
     0
  9
$SPLINETYPE
 70
     6
  9
$SPLINESEGS
 70
     8
  9
$ATTDIA
 70
     1
  9
$ATTREQ
 70
     1
  9
$HANDLING
 70
     1
  9
$HANDSEED
  5
4F0
  9
$SURFTAB1
 70
     6
  9
$SURFTAB2
 70
     6
  9
$SURFTYPE
 70
     6
  9
$SURFU
 70
     6
  9
$SURFV
 70
     6
  9
$UCSNAME
  2

  9
$UCSORG
 10
0.0
 20
0.0
 30
0.0
  9
$UCSXDIR
 10
1.0
 20
0.0
 30
0.0
  9
$UCSYDIR
 10
0.0
 20
1.0
 30
0.0
  9
$PUCSNAME
  2

  9
$PUCSORG
 10
0.0
 20
0.0
 30
0.0
  9
$PUCSXDIR
 10
1.0
 20
0.0
 30
0.0
  9
$PUCSYDIR
 10
0.0
 20
1.0
 30
0.0
  9
$USERI1
 70
     0
  9
$USERI2
 70
     0
  9
$USERI3
 70
     0
  9
$USERI4
 70
     0
  9
$USERI5
 70
     0
  9
$USERR1
 40
0.0
  9
$USERR2
 40
0.0
  9
$USERR3
 40
0.0
  9
$USERR4
 40
0.0
  9
$USERR5
 40
0.0
  9
$WORLDVIEW
 70
     1
  9
$SHADEDGE
 70
     3
  9
$SHADEDIF
 70
    70
  9
$TILEMODE
 70
     1
  9
$MAXACTVP
 70
    64
  9
$PLIMCHECK
 70
     0
  9
$PEXTMIN
 10
1.0000000000000000E+020
 20
1.0000000000000000E+020
 30
1.0000000000000000E+020
  9
$PEXTMAX
 10
-1.0000000000000000E+020
 20
-1.0000000000000000E+020
 30
-1.0000000000000000E+020
  9
$PLIMMIN
 10
0.0
 20
0.0
  9
$PLIMMAX
 10
12.0
 20
9.0
  9
$UNITMODE
 70
     0
  9
$VISRETAIN
 70
     0
  9
$PLINEGEN
 70
     1
  9
$PSLTSCALE
 70
     0
  0
ENDSEC
  0
SECTION
  2
TABLES
  0
TABLE
  2
VPORT
 70
     1
  0
VPORT
  2
*ACTIVE
 70
     0
 10
0.0
 20
0.0
 11
1.0
 21
1.0
 12
-110.4172919920165
 22
-13.68021314814553
 13
0.0
 23
0.0
 14
1.0
 24
1.0
 15
0.0
 25
0.0
 16
0.0
 26
0.0
 36
1.0
 17
0.0
 27
0.0
 37
0.0
 40
2042.558873595442
 41
2.5312000000000001
 42
50.0
 43
0.0
 44
0.0
 50
0.0
 51
0.0
 71
     0
 72
  2000
 73
     1
 74
     1
 75
     0
 76
     0
 77
     0
 78
     0
  0
ENDTAB
  0
TABLE
  2
LTYPE
 70
    11
  0
LTYPE
  2
CONTINUOUS
 70
     0
  3
Solid line
 72
    65
 73
     0
 40
0.0
  0
LTYPE
  2
STYLE_02
 70
     0
  3

 72
    65
 73
     2
 40
0.694427490234375
 49
0.4860687255859375
 49
-0.2083587646484375
  0
ENDTAB
  0
TABLE
  2
LAYER
 70
     6
  0
LAYER
  2
0
 70
     0
 62
     7
  6
CONTINUOUS
  0
LAYER
  2
DATA
 70
     0
 62
     7
  6
CONTINUOUS
  0
LAYER
  2
HIBINO-BASE
 70
     0
 62
     7
  6
CONTINUOUS
  0
LAYER
  2
PATTERN_FILL
 70
     0
 62
     7
  6
CONTINUOUS
  0
LAYER
  2
SPEC
 70
     0
 62
     7
  6
CONTINUOUS
  0
LAYER
  2
DIMNSIONS
 70
     0
 62
     7
  6
CONTINUOUS
  0
ENDTAB
  0
TABLE
  2
STYLE
 70
     3
  0
STYLE
  2
STANDARD
 70
     0
 40
0.0
 41
1.0
 50
0.0
 71
     0
 42
0.0
  3
txt
  4
BIGFONT.SHX
  0
ENDTAB
  0
TABLE
  2
VIEW
 70
     0
  0
ENDTAB
  0
TABLE
  2
UCS
 70
     0
  0
ENDTAB
  0
TABLE
  2
APPID
 70
     4
  0
APPID
  2
ACAD
 70
     0
  0
APPID
  2
ACADANNOTATIVE
 70
     0
  0
APPID
  2
ACAD_NAV_VCDISPLAY
 70
     0
  0
APPID
  2
ACAD_MLEADERVER
 70
     0
  0
ENDTAB
  0
TABLE
  2
DIMSTYLE
 70
     2
  0
DIMSTYLE
  2
STANDARD
 70
     0
  3

  4

  5

  6

  7

 40
1.0
 41
0.18
 42
0.0625
 43
0.38
 44
0.18
 45
0.0
 46
0.0
 47
0.0
 48
0.0
140
0.18
141
0.09
142
0.0
143
25.399999999999999
144
1.0
145
0.0
146
1.0
147
0.09
 71
     0
 72
     0
 73
     1
 74
     1
 75
     0
 76
     0
 77
     0
 78
     0
170
     0
171
     2
172
     0
173
     0
174
     0
175
     0
176
     0
177
     0
178
     0
  0
ENDTAB
  0
ENDSEC
  0
SECTION
  2
BLOCKS
  0
BLOCK
  8
0
  2
$MODEL_SPACE
 70
     0
 10
0.0
 20
0.0
 30
0.0
  3
$MODEL_SPACE
  1

  0
ENDBLK
  5
442
  8
0
  0
BLOCK
 67
     1
  8
0
  2
$PAPER_SPACE
 70
     0
 10
0.0
 20
0.0
 30
0.0
  3
$PAPER_SPACE
  1

  0
ENDBLK
  5
43E
 67
     1
  8
0
  0
ENDSEC
  0
SECTION
  2
ENTITIES
  0
LINE
  5
2D
  8
HIBINO-BASE
  6
CONTINUOUS
 62
     7
 10
-450.0
 20
664.12726000000021
 30
0.0
 11
450.0
 21
664.12726000000021
 31
0.0
  0
LINE
  5
2E
  8
HIBINO-BASE
  6
CONTINUOUS
 62
     7
 10
450.0
 20
-635.87274000000002
 30
0.0
 11
-450.0
 21
-635.87274000000002
 31
0.0
  0
LINE
  5
2F
  8
HIBINO-BASE
  6
CONTINUOUS
 62
     7
 10
-450.0
 20
-635.87274000000002
 30
0.0
 11
-450.0
 21
664.12726000000021
 31
0.0
  0
LINE
  5
30
  8
HIBINO-BASE
  6
CONTINUOUS
 62
     7
 10
450.0
 20
664.12726000000021
 30
0.0
 11
450.0
 21
-635.87274000000002
 31
0.0
  0
LINE
  5
31
  8
HIBINO-BASE
  6
CONTINUOUS
 62
     7
 10
0.0000000000000355
 20
-523.37274000000002
 30
0.0
 11
450.0
 21
-523.37274000000002
 31
0.0
  0
LINE
  5
32
  8
HIBINO-BASE
  6
CONTINUOUS
 62
     7
 10
0.0000000000000355
 20
-635.87274000000002
 30
0.0
 11
0.0000000000000355
 21
-523.37274000000002
 31
0.0
  0
TEXT
  5
33
  8
HIBINO-BASE
 62
     7
 10
4.5000000000000631
 20
-535.91620666666654
 30
0.0
 40
8.1442057291666661
  1
NOTE
 11
4.5000000000000631
 21
-527.7720009374998
 31
0.0
 73
     3
  0
LINE
  5
34
  8
HIBINO-BASE
  6
CONTINUOUS
 62
     7
 10
175.00000000000011
 20
-635.87274000000002
 30
0.0
 11
175.00000000000011
 21
-523.37274000000002
 31
0.0
  0
TEXT
  5
35
  8
HIBINO-BASE
 62
     7
 10
179.5
 20
-535.91620666666654
 30
0.0
 40
8.1442057291666661
  1
TITLE
 11
179.5
 21
-527.7720009374998
 31
0.0
 73
     3
  0
LINE
  5
36
  8
HIBINO-BASE
  6
CONTINUOUS
 62
     7
 10
0.0000000000000355
 20
-585.87274000000002
 30
0.0
 11
450.0
 21
-585.87274000000002
 31
0.0
  0
TEXT
  5
37
  8
HIBINO-BASE
 62
     7
 10
242.0
 20
-598.13460666666651
 30
0.0
 40
8.1442057291666661
  1
DRAWN
 11
242.0
 21
-589.99040093749977
 31
0.0
 73
     3
  0
TEXT
  5
38
  8
HIBINO-BASE
 62
     7
 10
117.0
 20
-598.13460666666651
 30
0.0
 40
8.1442057291666661
  1
DATE
 11
117.0
 21
-589.99040093749977
 31
0.0
 73
     3
  0
TEXT
  5
39
  8
HIBINO-BASE
 62
     7
 10
67.0
 20
-598.13460666666651
 30
0.0
 40
8.1442057291666661
  1
SCALE
 11
67.0
 21
-589.99040093749977
 31
0.0
 73
     3
  0
TEXT
  5
3A
  8
HIBINO-BASE
 62
     7
 10
179.5
 20
-598.13460666666651
 30
0.0
 40
8.1442057291666661
  1
DESIGN
 11
179.5
 21
-589.99040093749977
 31
0.0
 73
     3
  0
TEXT
  5
3B
  8
HIBINO-BASE
 62
     7
 10
367.0
 20
-598.13460666666651
 30
0.0
 40
8.1442057291666661
  1
DRAWING NO.
 11
367.0
 21
-589.99040093749977
 31
0.0
 73
     3
  0
TEXT
  5
3C
  8
HIBINO-BASE
 62
     7
 10
304.49999999999989
 20
-598.13460666666651
 30
0.0
 40
8.1442057291666661
  1
CHECK
 11
304.49999999999989
 21
-589.99040093749977
 31
0.0
 73
     3
  0
LINE
  5
3D
  8
HIBINO-BASE
  6
CONTINUOUS
 62
     7
 10
71.875000000000014
 20
-629.62274000000002
 30
0.0
 11
90.625000000000114
 21
-610.87274000000002
 31
0.0
  0
TEXT
  5
3E
  8
HIBINO-BASE
 62
     7
 10
68.750000000000014
 20
-616.41745666666679
 30
0.0
 40
8.1442057291666661
  1
1
 11
68.750000000000014
 21
-608.27325093750005
 31
0.0
 73
     3
  0
LINE
  5
3F
  8
HIBINO-BASE
  6
CONTINUOUS
 62
     7
 10
62.500000000000028
 20
-635.87274000000002
 30
0.0
 11
62.500000000000028
 21
-585.87274000000002
 31
0.0
  0
LINE
  5
40
  8
HIBINO-BASE
  6
CONTINUOUS
 62
     7
 10
112.4999999999999
 20
-635.87274000000002
 30
0.0
 11
112.4999999999999
 21
-585.87274000000002
 31
0.0
  0
LINE
  5
41
  8
HIBINO-BASE
  6
CONTINUOUS
 62
     7
 10
237.5
 20
-585.87274000000002
 30
0.0
 11
237.5
 21
-635.87274000000002
 31
0.0
  0
LINE
  5
42
  8
HIBINO-BASE
  6
CONTINUOUS
 62
     7
 10
362.5
 20
-585.87274000000002
 30
0.0
 11
362.5
 21
-635.87274000000002
 31
0.0
  0
LINE
  5
43
  8
HIBINO-BASE
  6
CONTINUOUS
 62
     7
 10
300.0
 20
-635.87274000000002
 30
0.0
 11
300.0
 21
-585.87274000000002
 31
0.0
  0
TEXT
  5
44
  8
HIBINO-BASE
 62
     7
 10
116.7827000000001
 20
-621.55450666666638
 30
0.0
 40
8.1442057291666661
  1
'14.11.
 11
116.7827000000001
 21
-613.41030093749987
 31
0.0
 73
     3
  0
TEXT
  5
45
  8
HIBINO-BASE
 62
     7
 10
87.500000000000057
 20
-625.79245666666679
 30
0.0
 40
8.1442057291666661
  1
5
 11
87.500000000000057
 21
-617.64825093750005
 31
0.0
 73
     3
  0
TEXT
  5
46
  8
HIBINO-BASE
 62
     7
 10
245.02905005517309
 20
-621.55450666666638
 30
0.0
 40
8.1442057291666661
  1
N.Sasaki
 11
245.02905005517309
 21
-613.41030093749987
 31
0.0
 73
     3
  0
TEXT
  5
47
  8
HIBINO-BASE
 62
     7
 10
19.416666666666799
 20
-625.99274000000003
 30
0.0
 40
16.288411458333329
  1
A4
 11
19.416666666666799
 21
-609.70432854166665
 31
0.0
 73
     3
  0
TEXT
  5
48
  8
HIBINO-BASE
 62
     7
 10
4.7916666666666776
 20
-598.97001499999988
 30
0.0
 40
8.1442057291666661
  1
PAPER SIZE
 11
4.7916666666666794
 21
-590.82580927083325
 31
0.0
 73
     3
  0
TEXT
  5
49
  8
HIBINO-BASE
 62
     7
 10
-414.07999999999993
 20
-667.91612899999996
 30
0.0
 40
18.00022089843749
  1
Hibino Corporation
 11
-414.07999999999993
 21
-649.91590810156254
 31
0.0
 73
     3
  0
TEXT
  5
4A
  8
HIBINO-BASE
 62
     7
 10
250.34195
 20
-667.91612899999996
 30
0.0
 40
18.00022089843749
  1
ヒビノ株式会社
 11
250.34195
 21
-649.91590810156254
 31
0.0
 73
     3
  0
LINE
  5
4B
  8
PATTERN_FILL
  6
CONTINUOUS
 62
     7
 10
-322.0
 20
-211.40000000000001
 30
0.0
 11
-322.0
 21
-153.4000000000002
 31
0.0
  0
LINE
  5
4C
  8
PATTERN_FILL
  6
CONTINUOUS
 62
     7
 10
-320.0
 20
-211.40000000000001
 30
0.0
 11
-320.0
 21
-153.4000000000002
 31
0.0
  0
LINE
  5
4D
  8
PATTERN_FILL
  6
CONTINUOUS
 62
     7
 10
-318.0
 20
-211.40000000000001
 30
0.0
 11
-318.0
 21
-153.4000000000002
 31
0.0
  0
LINE
  5
4E
  8
PATTERN_FILL
  6
CONTINUOUS
 62
     7
 10
-316.0
 20
-211.40000000000001
 30
0.0
 11
-316.0
 21
-153.4000000000002
 31
0.0
  0
LINE
  5
4F
  8
PATTERN_FILL
  6
CONTINUOUS
 62
     7
 10
-314.0
 20
-211.40000000000001
 30
0.0
 11
-314.0
 21
-153.4000000000002
 31
0.0
  0
LINE
  5
50
  8
PATTERN_FILL
  6
CONTINUOUS
 62
     7
 10
-312.0
 20
-211.40000000000001
 30
0.0
 11
-312.0
 21
-153.4000000000002
 31
0.0
  0
LINE
  5
51
  8
PATTERN_FILL
  6
CONTINUOUS
 62
     7
 10
-310.0
 20
-211.40000000000001
 30
0.0
 11
-310.0
 21
-153.4000000000002
 31
0.0
  0
LINE
  5
52
  8
PATTERN_FILL
  6
CONTINUOUS
 62
     7
 10
-308.0
 20
-211.40000000000001
 30
0.0
 11
-308.0
 21
-153.4000000000002
 31
0.0
  0
LINE
  5
53
  8
PATTERN_FILL
  6
CONTINUOUS
 62
     7
 10
-306.0
 20
-211.40000000000001
 30
0.0
 11
-306.0
 21
-153.4000000000002
 31
0.0
  0
LINE
  5
54
  8
PATTERN_FILL
  6
CONTINUOUS
 62
     7
 10
-304.0
 20
-211.40000000000001
 30
0.0
 11
-304.0
 21
-153.4000000000002
 31
0.0
  0
LINE
  5
55
  8
PATTERN_FILL
  6
CONTINUOUS
 62
     7
 10
-302.0
 20
-211.40000000000001
 30
0.0
 11
-302.0
 21
-153.4000000000002
 31
0.0
  0
LINE
  5
56
  8
PATTERN_FILL
  6
CONTINUOUS
 62
     7
 10
-300.0
 20
-211.40000000000001
 30
0.0
 11
-300.0
 21
-153.4000000000002
 31
0.0
  0
LINE
  5
57
  8
PATTERN_FILL
  6
CONTINUOUS
 62
     7
 10
-298.0
 20
-211.40000000000001
 30
0.0
 11
-298.0
 21
-153.4000000000002
 31
0.0
  0
LINE
  5
58
  8
PATTERN_FILL
  6
CONTINUOUS
 62
     7
 10
-296.0
 20
-211.40000000000001
 30
0.0
 11
-296.0
 21
-153.4000000000002
 31
0.0
  0
LINE
  5
59
  8
PATTERN_FILL
  6
CONTINUOUS
 62
     7
 10
-294.0
 20
-211.40000000000001
 30
0.0
 11
-294.0
 21
-153.4000000000002
 31
0.0
  0
LINE
  5
5A
  8
PATTERN_FILL
  6
CONTINUOUS
 62
     7
 10
-292.0
 20
-211.40000000000001
 30
0.0
 11
-292.0
 21
-153.4000000000002
 31
0.0
  0
LINE
  5
5B
  8
PATTERN_FILL
  6
CONTINUOUS
 62
     7
 10
-290.0
 20
-211.40000000000001
 30
0.0
 11
-290.0
 21
-153.4000000000002
 31
0.0
  0
LINE
  5
5C
  8
PATTERN_FILL
  6
CONTINUOUS
 62
     7
 10
-288.0
 20
-211.40000000000001
 30
0.0
 11
-288.0
 21
-153.4000000000002
 31
0.0
  0
LINE
  5
5D
  8
PATTERN_FILL
  6
CONTINUOUS
 62
     7
 10
-286.0
 20
-211.40000000000001
 30
0.0
 11
-286.0
 21
-153.4000000000002
 31
0.0
  0
LINE
  5
5E
  8
PATTERN_FILL
  6
CONTINUOUS
 62
     7
 10
-284.0
 20
-211.40000000000001
 30
0.0
 11
-284.0
 21
-153.4000000000002
 31
0.0
  0
LINE
  5
5F
  8
PATTERN_FILL
  6
CONTINUOUS
 62
     7
 10
-282.0
 20
-211.40000000000001
 30
0.0
 11
-282.0
 21
-153.4000000000002
 31
0.0
  0
LINE
  5
60
  8
PATTERN_FILL
  6
CONTINUOUS
 62
     7
 10
-280.0
 20
-211.40000000000001
 30
0.0
 11
-280.0
 21
-153.4000000000002
 31
0.0
  0
LINE
  5
61
  8
PATTERN_FILL
  6
CONTINUOUS
 62
     7
 10
-278.0
 20
-211.40000000000001
 30
0.0
 11
-278.0
 21
-153.4000000000002
 31
0.0
  0
LINE
  5
62
  8
PATTERN_FILL
  6
CONTINUOUS
 62
     7
 10
-324.0
 20
-209.40000000000001
 30
0.0
 11
-276.0
 21
-209.40000000000001
 31
0.0
  0
LINE
  5
63
  8
PATTERN_FILL
  6
CONTINUOUS
 62
     7
 10
-324.0
 20
-207.40000000000001
 30
0.0
 11
-276.0
 21
-207.40000000000001
 31
0.0
  0
LINE
  5
64
  8
PATTERN_FILL
  6
CONTINUOUS
 62
     7
 10
-324.0
 20
-205.40000000000001
 30
0.0
 11
-276.0
 21
-205.40000000000001
 31
0.0
  0
LINE
  5
65
  8
PATTERN_FILL
  6
CONTINUOUS
 62
     7
 10
-324.0
 20
-203.40000000000001
 30
0.0
 11
-276.0
 21
-203.40000000000001
 31
0.0
  0
LINE
  5
66
  8
PATTERN_FILL
  6
CONTINUOUS
 62
     7
 10
-324.0
 20
-201.40000000000001
 30
0.0
 11
-276.0
 21
-201.40000000000001
 31
0.0
  0
LINE
  5
67
  8
PATTERN_FILL
  6
CONTINUOUS
 62
     7
 10
-324.0
 20
-199.40000000000001
 30
0.0
 11
-276.0
 21
-199.40000000000001
 31
0.0
  0
LINE
  5
68
  8
PATTERN_FILL
  6
CONTINUOUS
 62
     7
 10
-324.0
 20
-197.40000000000001
 30
0.0
 11
-276.0
 21
-197.40000000000001
 31
0.0
  0
LINE
  5
69
  8
PATTERN_FILL
  6
CONTINUOUS
 62
     7
 10
-324.0
 20
-195.40000000000001
 30
0.0
 11
-276.0
 21
-195.40000000000001
 31
0.0
  0
LINE
  5
6A
  8
PATTERN_FILL
  6
CONTINUOUS
 62
     7
 10
-324.0
 20
-193.40000000000001
 30
0.0
 11
-276.0
 21
-193.40000000000001
 31
0.0
  0
LINE
  5
6B
  8
PATTERN_FILL
  6
CONTINUOUS
 62
     7
 10
-324.0
 20
-191.40000000000001
 30
0.0
 11
-276.0
 21
-191.40000000000001
 31
0.0
  0
LINE
  5
6C
  8
PATTERN_FILL
  6
CONTINUOUS
 62
     7
 10
-324.0
 20
-189.40000000000001
 30
0.0
 11
-276.0
 21
-189.40000000000001
 31
0.0
  0
LINE
  5
6D
  8
PATTERN_FILL
  6
CONTINUOUS
 62
     7
 10
-324.0
 20
-187.40000000000001
 30
0.0
 11
-276.0
 21
-187.40000000000001
 31
0.0
  0
LINE
  5
6E
  8
PATTERN_FILL
  6
CONTINUOUS
 62
     7
 10
-324.0
 20
-185.40000000000001
 30
0.0
 11
-276.0
 21
-185.40000000000001
 31
0.0
  0
LINE
  5
6F
  8
PATTERN_FILL
  6
CONTINUOUS
 62
     7
 10
-324.0
 20
-183.40000000000001
 30
0.0
 11
-276.0
 21
-183.40000000000001
 31
0.0
  0
LINE
  5
70
  8
PATTERN_FILL
  6
CONTINUOUS
 62
     7
 10
-324.0
 20
-181.40000000000001
 30
0.0
 11
-276.0
 21
-181.40000000000001
 31
0.0
  0
LINE
  5
71
  8
PATTERN_FILL
  6
CONTINUOUS
 62
     7
 10
-324.0
 20
-179.39999999999989
 30
0.0
 11
-276.0
 21
-179.39999999999989
 31
0.0
  0
LINE
  5
72
  8
PATTERN_FILL
  6
CONTINUOUS
 62
     7
 10
-324.0
 20
-177.39999999999989
 30
0.0
 11
-276.0
 21
-177.39999999999989
 31
0.0
  0
LINE
  5
73
  8
PATTERN_FILL
  6
CONTINUOUS
 62
     7
 10
-324.0
 20
-175.39999999999989
 30
0.0
 11
-276.0
 21
-175.39999999999989
 31
0.0
  0
LINE
  5
74
  8
PATTERN_FILL
  6
CONTINUOUS
 62
     7
 10
-324.0
 20
-173.39999999999989
 30
0.0
 11
-276.0
 21
-173.39999999999989
 31
0.0
  0
LINE
  5
75
  8
PATTERN_FILL
  6
CONTINUOUS
 62
     7
 10
-324.0
 20
-171.39999999999989
 30
0.0
 11
-276.0
 21
-171.39999999999989
 31
0.0
  0
LINE
  5
76
  8
PATTERN_FILL
  6
CONTINUOUS
 62
     7
 10
-324.0
 20
-169.39999999999989
 30
0.0
 11
-276.0
 21
-169.39999999999989
 31
0.0
  0
LINE
  5
77
  8
PATTERN_FILL
  6
CONTINUOUS
 62
     7
 10
-324.0
 20
-167.39999999999989
 30
0.0
 11
-276.0
 21
-167.39999999999989
 31
0.0
  0
LINE
  5
78
  8
PATTERN_FILL
  6
CONTINUOUS
 62
     7
 10
-324.0
 20
-165.39999999999989
 30
0.0
 11
-276.0
 21
-165.39999999999989
 31
0.0
  0
LINE
  5
79
  8
PATTERN_FILL
  6
CONTINUOUS
 62
     7
 10
-324.0
 20
-163.39999999999989
 30
0.0
 11
-276.0
 21
-163.39999999999989
 31
0.0
  0
LINE
  5
7A
  8
PATTERN_FILL
  6
CONTINUOUS
 62
     7
 10
-324.0
 20
-161.39999999999989
 30
0.0
 11
-276.0
 21
-161.39999999999989
 31
0.0
  0
LINE
  5
7B
  8
PATTERN_FILL
  6
CONTINUOUS
 62
     7
 10
-324.0
 20
-159.39999999999989
 30
0.0
 11
-276.0
 21
-159.39999999999989
 31
0.0
  0
LINE
  5
7C
  8
PATTERN_FILL
  6
CONTINUOUS
 62
     7
 10
-324.0
 20
-157.39999999999989
 30
0.0
 11
-276.0
 21
-157.39999999999989
 31
0.0
  0
LINE
  5
7D
  8
PATTERN_FILL
  6
CONTINUOUS
 62
     7
 10
-324.0
 20
-155.39999999999989
 30
0.0
 11
-276.0
 21
-155.39999999999989
 31
0.0
  0
LINE
  5
7E
  8
PATTERN_FILL
  6
CONTINUOUS
 62
     7
 10
-322.79958526290972
 20
-145.1999999999999
 30
0.0
 11
-277.20041473709051
 21
-145.1999999999999
 31
0.0
  0
LINE
  5
7F
  8
PATTERN_FILL
  6
CONTINUOUS
 62
     7
 10
-320.69471399167293
 20
-143.1999999999999
 30
0.0
 11
-279.30528600832707
 21
-143.1999999999999
 31
0.0
  0
LINE
  5
80
  8
PATTERN_FILL
  6
CONTINUOUS
 62
     7
 10
-317.69656619545827
 20
-141.1999999999999
 30
0.0
 11
-282.3034338045419
 21
-141.1999999999999
 31
0.0
  0
LINE
  5
81
  8
PATTERN_FILL
  6
CONTINUOUS
 62
     7
 10
-312.79110060779908
 20
-139.1999999999999
 30
0.0
 11
-287.20889939220092
 21
-139.1999999999999
 31
0.0
  0
LINE
  5
82
  8
PATTERN_FILL
  6
CONTINUOUS
 62
     7
 10
-322.0
 20
-147.1999999999999
 30
0.0
 11
-322.0
 21
-144.294294359731
 31
0.0
  0
LINE
  5
83
  8
PATTERN_FILL
  6
CONTINUOUS
 62
     7
 10
-320.0
 20
-147.1999999999999
 30
0.0
 11
-320.0
 21
-142.67189377867189
 31
0.0
  0
LINE
  5
84
  8
PATTERN_FILL
  6
CONTINUOUS
 62
     7
 10
-318.0
 20
-147.1999999999999
 30
0.0
 11
-318.0
 21
-141.371634070867
 31
0.0
  0
LINE
  5
85
  8
PATTERN_FILL
  6
CONTINUOUS
 62
     7
 10
-316.0
 20
-147.1999999999999
 30
0.0
 11
-316.0
 21
-140.35075432571111
 31
0.0
  0
LINE
  5
86
  8
PATTERN_FILL
  6
CONTINUOUS
 62
     7
 10
-314.0
 20
-147.1999999999999
 30
0.0
 11
-314.0
 21
-139.56849257526281
 31
0.0
  0
LINE
  5
87
  8
PATTERN_FILL
  6
CONTINUOUS
 62
     7
 10
-312.0
 20
-147.1999999999999
 30
0.0
 11
-312.0
 21
-138.9988852866787
 31
0.0
  0
LINE
  5
88
  8
PATTERN_FILL
  6
CONTINUOUS
 62
     7
 10
-310.0
 20
-147.1999999999999
 30
0.0
 11
-310.0
 21
-138.6253744225705
 31
0.0
  0
LINE
  5
89
  8
PATTERN_FILL
  6
CONTINUOUS
 62
     7
 10
-308.0
 20
-147.1999999999999
 30
0.0
 11
-308.0
 21
-138.40245805539621
 31
0.0
  0
LINE
  5
8A
  8
PATTERN_FILL
  6
CONTINUOUS
 62
     7
 10
-306.0
 20
-147.1999999999999
 30
0.0
 11
-306.0
 21
-138.23104879930031
 31
0.0
  0
LINE
  5
8B
  8
PATTERN_FILL
  6
CONTINUOUS
 62
     7
 10
-304.0
 20
-147.1999999999999
 30
0.0
 11
-304.0
 21
-138.10696068910889
 31
0.0
  0
LINE
  5
8C
  8
PATTERN_FILL
  6
CONTINUOUS
 62
     7
 10
-302.0
 20
-147.1999999999999
 30
0.0
 11
-302.0
 21
-138.02998697160501
 31
0.0
  0
LINE
  5
8D
  8
PATTERN_FILL
  6
CONTINUOUS
 62
     7
 10
-300.0
 20
-147.1999999999999
 30
0.0
 11
-300.0
 21
-138.0
 31
0.0
  0
LINE
  5
8E
  8
PATTERN_FILL
  6
CONTINUOUS
 62
     7
 10
-298.0
 20
-147.1999999999999
 30
0.0
 11
-298.0
 21
-138.02998697160501
 31
0.0
  0
LINE
  5
8F
  8
PATTERN_FILL
  6
CONTINUOUS
 62
     7
 10
-296.0
 20
-147.1999999999999
 30
0.0
 11
-296.0
 21
-138.10696068910889
 31
0.0
  0
LINE
  5
90
  8
PATTERN_FILL
  6
CONTINUOUS
 62
     7
 10
-294.0
 20
-147.1999999999999
 30
0.0
 11
-294.0
 21
-138.23104879930031
 31
0.0
  0
LINE
  5
91
  8
PATTERN_FILL
  6
CONTINUOUS
 62
     7
 10
-292.0
 20
-147.1999999999999
 30
0.0
 11
-292.0
 21
-138.40245805539629
 31
0.0
  0
LINE
  5
92
  8
PATTERN_FILL
  6
CONTINUOUS
 62
     7
 10
-290.0
 20
-147.1999999999999
 30
0.0
 11
-290.0
 21
-138.6253744225705
 31
0.0
  0
LINE
  5
93
  8
PATTERN_FILL
  6
CONTINUOUS
 62
     7
 10
-288.0
 20
-147.1999999999999
 30
0.0
 11
-288.0
 21
-138.9988852866787
 31
0.0
  0
LINE
  5
94
  8
PATTERN_FILL
  6
CONTINUOUS
 62
     7
 10
-286.0
 20
-147.1999999999999
 30
0.0
 11
-286.0
 21
-139.56849257526281
 31
0.0
  0
LINE
  5
95
  8
PATTERN_FILL
  6
CONTINUOUS
 62
     7
 10
-284.0
 20
-147.1999999999999
 30
0.0
 11
-284.0
 21
-140.35075432571111
 31
0.0
  0
LINE
  5
96
  8
PATTERN_FILL
  6
CONTINUOUS
 62
     7
 10
-282.0
 20
-147.1999999999999
 30
0.0
 11
-282.0
 21
-141.371634070867
 31
0.0
  0
LINE
  5
97
  8
PATTERN_FILL
  6
CONTINUOUS
 62
     7
 10
-280.0
 20
-147.1999999999999
 30
0.0
 11
-280.0
 21
-142.67189377867189
 31
0.0
  0
LINE
  5
98
  8
PATTERN_FILL
  6
CONTINUOUS
 62
     7
 10
-278.0
 20
-147.1999999999999
 30
0.0
 11
-278.0
 21
-144.2942943597312
 31
0.0
  0
LINE
  5
99
  8
PATTERN_FILL
  6
CONTINUOUS
 62
     7
 10
-222.00000000000011
 20
-211.40000000000001
 30
0.0
 11
-222.00000000000011
 21
-153.40000000000009
 31
0.0
  0
LINE
  5
9A
  8
PATTERN_FILL
  6
CONTINUOUS
 62
     7
 10
-220.00000000000011
 20
-211.40000000000001
 30
0.0
 11
-220.00000000000011
 21
-153.40000000000009
 31
0.0
  0
LINE
  5
9B
  8
PATTERN_FILL
  6
CONTINUOUS
 62
     7
 10
-218.00000000000011
 20
-211.40000000000001
 30
0.0
 11
-218.00000000000011
 21
-153.40000000000009
 31
0.0
  0
LINE
  5
9C
  8
PATTERN_FILL
  6
CONTINUOUS
 62
     7
 10
-216.00000000000011
 20
-211.40000000000001
 30
0.0
 11
-216.00000000000011
 21
-153.40000000000009
 31
0.0
  0
LINE
  5
9D
  8
PATTERN_FILL
  6
CONTINUOUS
 62
     7
 10
-214.00000000000011
 20
-211.40000000000001
 30
0.0
 11
-214.00000000000011
 21
-153.40000000000009
 31
0.0
  0
LINE
  5
9E
  8
PATTERN_FILL
  6
CONTINUOUS
 62
     7
 10
-212.00000000000011
 20
-211.40000000000001
 30
0.0
 11
-212.00000000000011
 21
-153.40000000000009
 31
0.0
  0
LINE
  5
9F
  8
PATTERN_FILL
  6
CONTINUOUS
 62
     7
 10
-210.00000000000011
 20
-211.40000000000001
 30
0.0
 11
-210.00000000000011
 21
-153.40000000000009
 31
0.0
  0
LINE
  5
A0
  8
PATTERN_FILL
  6
CONTINUOUS
 62
     7
 10
-208.00000000000011
 20
-211.40000000000001
 30
0.0
 11
-208.00000000000011
 21
-153.40000000000009
 31
0.0
  0
LINE
  5
A1
  8
PATTERN_FILL
  6
CONTINUOUS
 62
     7
 10
-206.00000000000011
 20
-211.40000000000001
 30
0.0
 11
-206.00000000000011
 21
-153.40000000000009
 31
0.0
  0
LINE
  5
A2
  8
PATTERN_FILL
  6
CONTINUOUS
 62
     7
 10
-194.00000000000011
 20
-211.40000000000001
 30
0.0
 11
-194.00000000000011
 21
-153.40000000000009
 31
0.0
  0
LINE
  5
A3
  8
PATTERN_FILL
  6
CONTINUOUS
 62
     7
 10
-192.0
 20
-211.40000000000001
 30
0.0
 11
-192.0
 21
-153.40000000000009
 31
0.0
  0
LINE
  5
A4
  8
PATTERN_FILL
  6
CONTINUOUS
 62
     7
 10
-190.00000000000011
 20
-211.40000000000001
 30
0.0
 11
-190.00000000000011
 21
-153.40000000000009
 31
0.0
  0
LINE
  5
A5
  8
PATTERN_FILL
  6
CONTINUOUS
 62
     7
 10
-188.0
 20
-211.40000000000001
 30
0.0
 11
-188.0
 21
-153.40000000000009
 31
0.0
  0
LINE
  5
A6
  8
PATTERN_FILL
  6
CONTINUOUS
 62
     7
 10
-186.00000000000011
 20
-211.40000000000001
 30
0.0
 11
-186.00000000000011
 21
-153.40000000000009
 31
0.0
  0
LINE
  5
A7
  8
PATTERN_FILL
  6
CONTINUOUS
 62
     7
 10
-184.00000000000011
 20
-211.40000000000001
 30
0.0
 11
-184.00000000000011
 21
-153.40000000000009
 31
0.0
  0
LINE
  5
A8
  8
PATTERN_FILL
  6
CONTINUOUS
 62
     7
 10
-182.00000000000011
 20
-211.40000000000001
 30
0.0
 11
-182.00000000000011
 21
-153.40000000000009
 31
0.0
  0
LINE
  5
A9
  8
PATTERN_FILL
  6
CONTINUOUS
 62
     7
 10
-180.00000000000011
 20
-211.40000000000001
 30
0.0
 11
-180.00000000000011
 21
-153.40000000000009
 31
0.0
  0
LINE
  5
AA
  8
PATTERN_FILL
  6
CONTINUOUS
 62
     7
 10
-178.00000000000011
 20
-211.40000000000001
 30
0.0
 11
-178.00000000000011
 21
-153.40000000000009
 31
0.0
  0
LINE
  5
AB
  8
PATTERN_FILL
  6
CONTINUOUS
 62
     7
 10
-224.00000000000011
 20
-209.40000000000001
 30
0.0
 11
-204.00000000000011
 21
-209.40000000000001
 31
0.0
  0
LINE
  5
AC
  8
PATTERN_FILL
  6
CONTINUOUS
 62
     7
 10
-196.00000000000011
 20
-209.40000000000001
 30
0.0
 11
-176.00000000000011
 21
-209.40000000000001
 31
0.0
  0
LINE
  5
AD
  8
PATTERN_FILL
  6
CONTINUOUS
 62
     7
 10
-224.00000000000011
 20
-207.40000000000001
 30
0.0
 11
-204.00000000000011
 21
-207.40000000000001
 31
0.0
  0
LINE
  5
AE
  8
PATTERN_FILL
  6
CONTINUOUS
 62
     7
 10
-196.00000000000011
 20
-207.40000000000001
 30
0.0
 11
-176.00000000000011
 21
-207.40000000000001
 31
0.0
  0
LINE
  5
AF
  8
PATTERN_FILL
  6
CONTINUOUS
 62
     7
 10
-224.00000000000011
 20
-205.40000000000001
 30
0.0
 11
-204.00000000000011
 21
-205.40000000000001
 31
0.0
  0
LINE
  5
B0
  8
PATTERN_FILL
  6
CONTINUOUS
 62
     7
 10
-196.00000000000011
 20
-205.40000000000001
 30
0.0
 11
-176.00000000000011
 21
-205.40000000000001
 31
0.0
  0
LINE
  5
B1
  8
PATTERN_FILL
  6
CONTINUOUS
 62
     7
 10
-224.00000000000011
 20
-203.40000000000001
 30
0.0
 11
-204.00000000000011
 21
-203.40000000000001
 31
0.0
  0
LINE
  5
B2
  8
PATTERN_FILL
  6
CONTINUOUS
 62
     7
 10
-196.00000000000011
 20
-203.40000000000001
 30
0.0
 11
-176.00000000000011
 21
-203.40000000000001
 31
0.0
  0
LINE
  5
B3
  8
PATTERN_FILL
  6
CONTINUOUS
 62
     7
 10
-224.00000000000011
 20
-201.40000000000001
 30
0.0
 11
-204.00000000000011
 21
-201.40000000000001
 31
0.0
  0
LINE
  5
B4
  8
PATTERN_FILL
  6
CONTINUOUS
 62
     7
 10
-196.00000000000011
 20
-201.40000000000001
 30
0.0
 11
-176.00000000000011
 21
-201.40000000000001
 31
0.0
  0
LINE
  5
B5
  8
PATTERN_FILL
  6
CONTINUOUS
 62
     7
 10
-224.00000000000011
 20
-199.40000000000001
 30
0.0
 11
-204.00000000000011
 21
-199.40000000000001
 31
0.0
  0
LINE
  5
B6
  8
PATTERN_FILL
  6
CONTINUOUS
 62
     7
 10
-196.00000000000011
 20
-199.40000000000001
 30
0.0
 11
-176.00000000000011
 21
-199.40000000000001
 31
0.0
  0
LINE
  5
B7
  8
PATTERN_FILL
  6
CONTINUOUS
 62
     7
 10
-224.00000000000011
 20
-197.40000000000001
 30
0.0
 11
-204.00000000000011
 21
-197.40000000000001
 31
0.0
  0
LINE
  5
B8
  8
PATTERN_FILL
  6
CONTINUOUS
 62
     7
 10
-196.00000000000011
 20
-197.40000000000001
 30
0.0
 11
-176.00000000000011
 21
-197.40000000000001
 31
0.0
  0
LINE
  5
B9
  8
PATTERN_FILL
  6
CONTINUOUS
 62
     7
 10
-224.00000000000011
 20
-195.40000000000001
 30
0.0
 11
-204.00000000000011
 21
-195.40000000000001
 31
0.0
  0
LINE
  5
BA
  8
PATTERN_FILL
  6
CONTINUOUS
 62
     7
 10
-196.00000000000011
 20
-195.40000000000001
 30
0.0
 11
-176.00000000000011
 21
-195.40000000000001
 31
0.0
  0
LINE
  5
BB
  8
PATTERN_FILL
  6
CONTINUOUS
 62
     7
 10
-224.00000000000011
 20
-193.40000000000001
 30
0.0
 11
-204.00000000000011
 21
-193.40000000000001
 31
0.0
  0
LINE
  5
BC
  8
PATTERN_FILL
  6
CONTINUOUS
 62
     7
 10
-196.00000000000011
 20
-193.40000000000001
 30
0.0
 11
-176.00000000000011
 21
-193.40000000000001
 31
0.0
  0
LINE
  5
BD
  8
PATTERN_FILL
  6
CONTINUOUS
 62
     7
 10
-224.00000000000011
 20
-191.40000000000001
 30
0.0
 11
-204.00000000000011
 21
-191.40000000000001
 31
0.0
  0
LINE
  5
BE
  8
PATTERN_FILL
  6
CONTINUOUS
 62
     7
 10
-196.00000000000011
 20
-191.40000000000001
 30
0.0
 11
-176.00000000000011
 21
-191.40000000000001
 31
0.0
  0
LINE
  5
BF
  8
PATTERN_FILL
  6
CONTINUOUS
 62
     7
 10
-224.00000000000011
 20
-189.40000000000001
 30
0.0
 11
-204.00000000000011
 21
-189.40000000000001
 31
0.0
  0
LINE
  5
C0
  8
PATTERN_FILL
  6
CONTINUOUS
 62
     7
 10
-196.00000000000011
 20
-189.40000000000001
 30
0.0
 11
-176.00000000000011
 21
-189.40000000000001
 31
0.0
  0
LINE
  5
C1
  8
PATTERN_FILL
  6
CONTINUOUS
 62
     7
 10
-224.00000000000011
 20
-187.40000000000001
 30
0.0
 11
-204.00000000000011
 21
-187.40000000000001
 31
0.0
  0
LINE
  5
C2
  8
PATTERN_FILL
  6
CONTINUOUS
 62
     7
 10
-196.00000000000011
 20
-187.40000000000001
 30
0.0
 11
-176.00000000000011
 21
-187.40000000000001
 31
0.0
  0
LINE
  5
C3
  8
PATTERN_FILL
  6
CONTINUOUS
 62
     7
 10
-224.00000000000011
 20
-185.40000000000001
 30
0.0
 11
-204.00000000000011
 21
-185.40000000000001
 31
0.0
  0
LINE
  5
C4
  8
PATTERN_FILL
  6
CONTINUOUS
 62
     7
 10
-196.00000000000011
 20
-185.40000000000001
 30
0.0
 11
-176.00000000000011
 21
-185.40000000000001
 31
0.0
  0
LINE
  5
C5
  8
PATTERN_FILL
  6
CONTINUOUS
 62
     7
 10
-224.00000000000011
 20
-183.40000000000001
 30
0.0
 11
-204.00000000000011
 21
-183.40000000000001
 31
0.0
  0
LINE
  5
C6
  8
PATTERN_FILL
  6
CONTINUOUS
 62
     7
 10
-196.00000000000011
 20
-183.40000000000001
 30
0.0
 11
-176.00000000000011
 21
-183.40000000000001
 31
0.0
  0
LINE
  5
C7
  8
PATTERN_FILL
  6
CONTINUOUS
 62
     7
 10
-224.00000000000011
 20
-181.40000000000001
 30
0.0
 11
-204.00000000000011
 21
-181.40000000000001
 31
0.0
  0
LINE
  5
C8
  8
PATTERN_FILL
  6
CONTINUOUS
 62
     7
 10
-196.00000000000011
 20
-181.40000000000001
 30
0.0
 11
-176.00000000000011
 21
-181.40000000000001
 31
0.0
  0
LINE
  5
C9
  8
PATTERN_FILL
  6
CONTINUOUS
 62
     7
 10
-224.00000000000011
 20
-179.39999999999989
 30
0.0
 11
-204.00000000000011
 21
-179.39999999999989
 31
0.0
  0
LINE
  5
CA
  8
PATTERN_FILL
  6
CONTINUOUS
 62
     7
 10
-196.00000000000011
 20
-179.39999999999989
 30
0.0
 11
-176.00000000000011
 21
-179.39999999999989
 31
0.0
  0
LINE
  5
CB
  8
PATTERN_FILL
  6
CONTINUOUS
 62
     7
 10
-224.00000000000011
 20
-177.39999999999989
 30
0.0
 11
-204.00000000000011
 21
-177.39999999999989
 31
0.0
  0
LINE
  5
CC
  8
PATTERN_FILL
  6
CONTINUOUS
 62
     7
 10
-196.00000000000011
 20
-177.39999999999989
 30
0.0
 11
-176.00000000000011
 21
-177.39999999999989
 31
0.0
  0
LINE
  5
CD
  8
PATTERN_FILL
  6
CONTINUOUS
 62
     7
 10
-224.00000000000011
 20
-175.39999999999989
 30
0.0
 11
-204.00000000000011
 21
-175.39999999999989
 31
0.0
  0
LINE
  5
CE
  8
PATTERN_FILL
  6
CONTINUOUS
 62
     7
 10
-196.00000000000011
 20
-175.39999999999989
 30
0.0
 11
-176.00000000000011
 21
-175.39999999999989
 31
0.0
  0
LINE
  5
CF
  8
PATTERN_FILL
  6
CONTINUOUS
 62
     7
 10
-224.00000000000011
 20
-173.39999999999989
 30
0.0
 11
-204.00000000000011
 21
-173.39999999999989
 31
0.0
  0
LINE
  5
D0
  8
PATTERN_FILL
  6
CONTINUOUS
 62
     7
 10
-196.00000000000011
 20
-173.39999999999989
 30
0.0
 11
-176.00000000000011
 21
-173.39999999999989
 31
0.0
  0
LINE
  5
D1
  8
PATTERN_FILL
  6
CONTINUOUS
 62
     7
 10
-224.00000000000011
 20
-171.39999999999989
 30
0.0
 11
-204.00000000000011
 21
-171.39999999999989
 31
0.0
  0
LINE
  5
D2
  8
PATTERN_FILL
  6
CONTINUOUS
 62
     7
 10
-196.00000000000011
 20
-171.39999999999989
 30
0.0
 11
-176.00000000000011
 21
-171.39999999999989
 31
0.0
  0
LINE
  5
D3
  8
PATTERN_FILL
  6
CONTINUOUS
 62
     7
 10
-224.00000000000011
 20
-169.39999999999989
 30
0.0
 11
-204.00000000000011
 21
-169.39999999999989
 31
0.0
  0
LINE
  5
D4
  8
PATTERN_FILL
  6
CONTINUOUS
 62
     7
 10
-196.00000000000011
 20
-169.39999999999989
 30
0.0
 11
-176.00000000000011
 21
-169.39999999999989
 31
0.0
  0
LINE
  5
D5
  8
PATTERN_FILL
  6
CONTINUOUS
 62
     7
 10
-224.00000000000011
 20
-167.39999999999989
 30
0.0
 11
-204.00000000000011
 21
-167.39999999999989
 31
0.0
  0
LINE
  5
D6
  8
PATTERN_FILL
  6
CONTINUOUS
 62
     7
 10
-196.00000000000011
 20
-167.39999999999989
 30
0.0
 11
-176.00000000000011
 21
-167.39999999999989
 31
0.0
  0
LINE
  5
D7
  8
PATTERN_FILL
  6
CONTINUOUS
 62
     7
 10
-224.00000000000011
 20
-165.39999999999989
 30
0.0
 11
-204.00000000000011
 21
-165.39999999999989
 31
0.0
  0
LINE
  5
D8
  8
PATTERN_FILL
  6
CONTINUOUS
 62
     7
 10
-196.00000000000011
 20
-165.39999999999989
 30
0.0
 11
-176.00000000000011
 21
-165.39999999999989
 31
0.0
  0
LINE
  5
D9
  8
PATTERN_FILL
  6
CONTINUOUS
 62
     7
 10
-224.00000000000011
 20
-163.39999999999989
 30
0.0
 11
-204.00000000000011
 21
-163.39999999999989
 31
0.0
  0
LINE
  5
DA
  8
PATTERN_FILL
  6
CONTINUOUS
 62
     7
 10
-196.00000000000011
 20
-163.39999999999989
 30
0.0
 11
-176.00000000000011
 21
-163.39999999999989
 31
0.0
  0
LINE
  5
DB
  8
PATTERN_FILL
  6
CONTINUOUS
 62
     7
 10
-224.00000000000011
 20
-161.39999999999989
 30
0.0
 11
-204.00000000000011
 21
-161.39999999999989
 31
0.0
  0
LINE
  5
DC
  8
PATTERN_FILL
  6
CONTINUOUS
 62
     7
 10
-196.00000000000011
 20
-161.39999999999989
 30
0.0
 11
-176.00000000000011
 21
-161.39999999999989
 31
0.0
  0
LINE
  5
DD
  8
PATTERN_FILL
  6
CONTINUOUS
 62
     7
 10
-224.00000000000011
 20
-159.39999999999989
 30
0.0
 11
-204.00000000000011
 21
-159.39999999999989
 31
0.0
  0
LINE
  5
DE
  8
PATTERN_FILL
  6
CONTINUOUS
 62
     7
 10
-196.00000000000011
 20
-159.39999999999989
 30
0.0
 11
-176.00000000000011
 21
-159.39999999999989
 31
0.0
  0
LINE
  5
DF
  8
PATTERN_FILL
  6
CONTINUOUS
 62
     7
 10
-224.00000000000011
 20
-157.39999999999989
 30
0.0
 11
-204.00000000000011
 21
-157.39999999999989
 31
0.0
  0
LINE
  5
E0
  8
PATTERN_FILL
  6
CONTINUOUS
 62
     7
 10
-196.00000000000011
 20
-157.39999999999989
 30
0.0
 11
-176.00000000000011
 21
-157.39999999999989
 31
0.0
  0
LINE
  5
E1
  8
PATTERN_FILL
  6
CONTINUOUS
 62
     7
 10
-224.00000000000011
 20
-155.39999999999989
 30
0.0
 11
-204.00000000000011
 21
-155.39999999999989
 31
0.0
  0
LINE
  5
E2
  8
PATTERN_FILL
  6
CONTINUOUS
 62
     7
 10
-196.00000000000011
 20
-155.39999999999989
 30
0.0
 11
-176.00000000000011
 21
-155.39999999999989
 31
0.0
  0
LINE
  5
E3
  8
PATTERN_FILL
  6
CONTINUOUS
 62
     7
 10
-222.79958526290969
 20
-145.1999999999999
 30
0.0
 11
-177.2004147370904
 21
-145.1999999999999
 31
0.0
  0
LINE
  5
E4
  8
PATTERN_FILL
  6
CONTINUOUS
 62
     7
 10
-220.6947139916731
 20
-143.1999999999999
 30
0.0
 11
-179.3052860083271
 21
-143.1999999999999
 31
0.0
  0
LINE
  5
E5
  8
PATTERN_FILL
  6
CONTINUOUS
 62
     7
 10
-217.69656619545819
 20
-141.1999999999999
 30
0.0
 11
-182.3034338045419
 21
-141.1999999999999
 31
0.0
  0
LINE
  5
E6
  8
PATTERN_FILL
  6
CONTINUOUS
 62
     7
 10
-212.79110060779911
 20
-139.1999999999999
 30
0.0
 11
-187.208899392201
 21
-139.1999999999999
 31
0.0
  0
LINE
  5
E7
  8
PATTERN_FILL
  6
CONTINUOUS
 62
     7
 10
-222.00000000000011
 20
-147.1999999999999
 30
0.0
 11
-222.00000000000011
 21
-144.294294359731
 31
0.0
  0
LINE
  5
E8
  8
PATTERN_FILL
  6
CONTINUOUS
 62
     7
 10
-220.00000000000011
 20
-147.1999999999999
 30
0.0
 11
-220.00000000000011
 21
-142.67189377867189
 31
0.0
  0
LINE
  5
E9
  8
PATTERN_FILL
  6
CONTINUOUS
 62
     7
 10
-218.00000000000011
 20
-147.1999999999999
 30
0.0
 11
-218.00000000000011
 21
-141.371634070867
 31
0.0
  0
LINE
  5
EA
  8
PATTERN_FILL
  6
CONTINUOUS
 62
     7
 10
-216.00000000000011
 20
-147.1999999999999
 30
0.0
 11
-216.00000000000011
 21
-140.35075432571111
 31
0.0
  0
LINE
  5
EB
  8
PATTERN_FILL
  6
CONTINUOUS
 62
     7
 10
-214.00000000000011
 20
-147.1999999999999
 30
0.0
 11
-214.00000000000011
 21
-139.56849257526281
 31
0.0
  0
LINE
  5
EC
  8
PATTERN_FILL
  6
CONTINUOUS
 62
     7
 10
-212.00000000000011
 20
-147.1999999999999
 30
0.0
 11
-212.00000000000011
 21
-138.9988852866787
 31
0.0
  0
LINE
  5
ED
  8
PATTERN_FILL
  6
CONTINUOUS
 62
     7
 10
-210.00000000000011
 20
-147.1999999999999
 30
0.0
 11
-210.00000000000011
 21
-138.6253744225705
 31
0.0
  0
LINE
  5
EE
  8
PATTERN_FILL
  6
CONTINUOUS
 62
     7
 10
-208.00000000000011
 20
-147.1999999999999
 30
0.0
 11
-208.00000000000011
 21
-138.40245805539621
 31
0.0
  0
LINE
  5
EF
  8
PATTERN_FILL
  6
CONTINUOUS
 62
     7
 10
-206.00000000000011
 20
-147.1999999999999
 30
0.0
 11
-206.00000000000011
 21
-138.23104879930031
 31
0.0
  0
LINE
  5
F0
  8
PATTERN_FILL
  6
CONTINUOUS
 62
     7
 10
-204.00000000000011
 20
-147.1999999999999
 30
0.0
 11
-204.00000000000011
 21
-138.10696068910889
 31
0.0
  0
LINE
  5
F1
  8
PATTERN_FILL
  6
CONTINUOUS
 62
     7
 10
-202.00000000000011
 20
-147.1999999999999
 30
0.0
 11
-202.00000000000011
 21
-138.02998697160501
 31
0.0
  0
LINE
  5
F2
  8
PATTERN_FILL
  6
CONTINUOUS
 62
     7
 10
-200.00000000000011
 20
-147.1999999999999
 30
0.0
 11
-200.00000000000011
 21
-138.0
 31
0.0
  0
LINE
  5
F3
  8
PATTERN_FILL
  6
CONTINUOUS
 62
     7
 10
-198.00000000000011
 20
-147.1999999999999
 30
0.0
 11
-198.00000000000011
 21
-138.02998697160501
 31
0.0
  0
LINE
  5
F4
  8
PATTERN_FILL
  6
CONTINUOUS
 62
     7
 10
-196.00000000000011
 20
-147.1999999999999
 30
0.0
 11
-196.00000000000011
 21
-138.10696068910889
 31
0.0
  0
LINE
  5
F5
  8
PATTERN_FILL
  6
CONTINUOUS
 62
     7
 10
-194.00000000000011
 20
-147.1999999999999
 30
0.0
 11
-194.00000000000011
 21
-138.23104879930031
 31
0.0
  0
LINE
  5
F6
  8
PATTERN_FILL
  6
CONTINUOUS
 62
     7
 10
-192.0
 20
-147.1999999999999
 30
0.0
 11
-192.0
 21
-138.40245805539629
 31
0.0
  0
LINE
  5
F7
  8
PATTERN_FILL
  6
CONTINUOUS
 62
     7
 10
-190.00000000000011
 20
-147.1999999999999
 30
0.0
 11
-190.00000000000011
 21
-138.6253744225705
 31
0.0
  0
LINE
  5
F8
  8
PATTERN_FILL
  6
CONTINUOUS
 62
     7
 10
-188.0
 20
-147.1999999999999
 30
0.0
 11
-188.0
 21
-138.9988852866787
 31
0.0
  0
LINE
  5
F9
  8
PATTERN_FILL
  6
CONTINUOUS
 62
     7
 10
-186.00000000000011
 20
-147.1999999999999
 30
0.0
 11
-186.00000000000011
 21
-139.56849257526281
 31
0.0
  0
LINE
  5
FA
  8
PATTERN_FILL
  6
CONTINUOUS
 62
     7
 10
-184.00000000000011
 20
-147.1999999999999
 30
0.0
 11
-184.00000000000011
 21
-140.35075432571111
 31
0.0
  0
LINE
  5
FB
  8
PATTERN_FILL
  6
CONTINUOUS
 62
     7
 10
-182.00000000000011
 20
-147.1999999999999
 30
0.0
 11
-182.00000000000011
 21
-141.371634070867
 31
0.0
  0
LINE
  5
FC
  8
PATTERN_FILL
  6
CONTINUOUS
 62
     7
 10
-180.00000000000011
 20
-147.1999999999999
 30
0.0
 11
-180.00000000000011
 21
-142.67189377867189
 31
0.0
  0
LINE
  5
FD
  8
PATTERN_FILL
  6
CONTINUOUS
 62
     7
 10
-178.00000000000011
 20
-147.1999999999999
 30
0.0
 11
-178.00000000000011
 21
-144.2942943597312
 31
0.0
  0
LINE
  5
FE
  8
PATTERN_FILL
  6
CONTINUOUS
 62
     7
 10
-304.0
 20
-103.69158945763721
 30
0.0
 11
-296.16482217220971
 21
-103.69158945763721
 31
0.0
  0
LINE
  5
FF
  8
PATTERN_FILL
  6
CONTINUOUS
 62
     7
 10
-310.27009964904551
 20
-101.69158945763721
 30
0.0
 11
-289.72990035095461
 21
-101.69158945763721
 31
0.0
  0
LINE
  5
100
  8
PATTERN_FILL
  6
CONTINUOUS
 62
     7
 10
-313.72010585352291
 20
-99.691589457637164
 30
0.0
 11
-286.2798941464772
 21
-99.691589457637164
 31
0.0
  0
LINE
  5
101
  8
PATTERN_FILL
  6
CONTINUOUS
 62
     7
 10
-316.21751098234319
 20
-97.691589457637164
 30
0.0
 11
-283.78248901765693
 21
-97.691589457637164
 31
0.0
  0
LINE
  5
102
  8
PATTERN_FILL
  6
CONTINUOUS
 62
     7
 10
-318.15968117266863
 20
-95.691589457637164
 30
0.0
 11
-281.8403188273316
 21
-95.691589457637164
 31
0.0
  0
LINE
  5
103
  8
PATTERN_FILL
  6
CONTINUOUS
 62
     7
 10
-319.7114276023712
 20
-93.691589457637164
 30
0.0
 11
-280.28857239762903
 21
-93.691589457637164
 31
0.0
  0
LINE
  5
104
  8
PATTERN_FILL
  6
CONTINUOUS
 62
     7
 10
-320.95964541575239
 20
-91.691589457637164
 30
0.0
 11
-279.04035458424772
 21
-91.691589457637164
 31
0.0
  0
LINE
  5
105
  8
PATTERN_FILL
  6
CONTINUOUS
 62
     7
 10
-321.95616300232388
 20
-89.691589457637193
 30
0.0
 11
-278.0
 21
-89.691589457637193
 31
0.0
  0
LINE
  5
106
  8
PATTERN_FILL
  6
CONTINUOUS
 62
     7
 10
-322.73410327273029
 20
-87.691589457637178
 30
0.0
 11
-277.26589672726988
 21
-87.691589457637178
 31
0.0
  0
LINE
  5
107
  8
PATTERN_FILL
  6
CONTINUOUS
 62
     7
 10
-323.31535565771452
 20
-85.691589457637193
 30
0.0
 11
-276.68464434228559
 21
-85.691589457637193
 31
0.0
  0
LINE
  5
108
  8
PATTERN_FILL
  6
CONTINUOUS
 62
     7
 10
-323.71438734768969
 20
-83.691589457637207
 30
0.0
 11
-276.28561265231042
 21
-83.691589457637207
 31
0.0
  0
LINE
  5
109
  8
PATTERN_FILL
  6
CONTINUOUS
 62
     7
 10
-323.94031171699339
 20
-81.691589457637193
 30
0.0
 11
-276.05968828300661
 21
-81.691589457637193
 31
0.0
  0
LINE
  5
10A
  8
PATTERN_FILL
  6
CONTINUOUS
 62
     7
 10
-323.99801831271412
 20
-79.691589457637193
 30
0.0
 11
-276.00198168728588
 21
-79.691589457637193
 31
0.0
  0
LINE
  5
10B
  8
PATTERN_FILL
  6
CONTINUOUS
 62
     7
 10
-323.88872622740507
 20
-77.691589457637193
 30
0.0
 11
-276.11127377259498
 21
-77.691589457637193
 31
0.0
  0
LINE
  5
10C
  8
PATTERN_FILL
  6
CONTINUOUS
 62
     7
 10
-323.61011644610119
 20
-75.691589457637193
 30
0.0
 11
-276.38988355389893
 21
-75.691589457637193
 31
0.0
  0
LINE
  5
10D
  8
PATTERN_FILL
  6
CONTINUOUS
 62
     7
 10
-323.15607817461779
 20
-73.691589457637193
 30
0.0
 11
-276.84392182538238
 21
-73.691589457637193
 31
0.0
  0
LINE
  5
10E
  8
PATTERN_FILL
  6
CONTINUOUS
 62
     7
 10
-322.51600129373668
 20
-71.691589457637193
 30
0.0
 11
-277.48399870626332
 21
-71.691589457637193
 31
0.0
  0
LINE
  5
10F
  8
PATTERN_FILL
  6
CONTINUOUS
 62
     7
 10
-321.67340933240803
 20
-69.691589457637178
 30
0.0
 11
-278.3265906675922
 21
-69.691589457637178
 31
0.0
  0
LINE
  5
110
  8
PATTERN_FILL
  6
CONTINUOUS
 62
     7
 10
-320.60347130754081
 20
-67.691589457637178
 30
0.0
 11
-279.3965286924593
 21
-67.691589457637178
 31
0.0
  0
LINE
  5
111
  8
PATTERN_FILL
  6
CONTINUOUS
 62
     7
 10
-319.2683519728908
 20
-65.691589457637164
 30
0.0
 11
-280.73164802710937
 21
-65.691589457637164
 31
0.0
  0
LINE
  5
112
  8
PATTERN_FILL
  6
CONTINUOUS
 62
     7
 10
-317.60783193870702
 20
-63.691589457637178
 30
0.0
 11
-282.39216806129309
 21
-63.691589457637178
 31
0.0
  0
LINE
  5
113
  8
PATTERN_FILL
  6
CONTINUOUS
 62
     7
 10
-315.51779956734532
 20
-61.691589457637178
 30
0.0
 11
-284.48220043265479
 21
-61.691589457637178
 31
0.0
  0
LINE
  5
114
  8
PATTERN_FILL
  6
CONTINUOUS
 62
     7
 10
-312.78938861880607
 20
-59.691589457637178
 30
0.0
 11
-287.21061138119398
 21
-59.691589457637178
 31
0.0
  0
LINE
  5
115
  8
PATTERN_FILL
  6
CONTINUOUS
 62
     7
 10
-308.8506959654818
 20
-57.691589457637178
 30
0.0
 11
-291.14930403451831
 21
-57.691589457637178
 31
0.0
  0
LINE
  5
116
  8
PATTERN_FILL
  6
CONTINUOUS
 62
     7
 10
-278.0
 20
-89.691589457637065
 30
0.0
 11
-278.0
 21
-70.408336953374487
 31
0.0
  0
LINE
  5
117
  8
PATTERN_FILL
  6
CONTINUOUS
 62
     7
 10
-280.0
 20
-93.266499161421621
 30
0.0
 11
-280.0
 21
-66.733500838578379
 31
0.0
  0
LINE
  5
118
  8
PATTERN_FILL
  6
CONTINUOUS
 62
     7
 10
-282.0
 20
-95.874507866387589
 30
0.0
 11
-282.0
 21
-64.125492133612397
 31
0.0
  0
LINE
  5
119
  8
PATTERN_FILL
  6
CONTINUOUS
 62
     7
 10
-284.0
 20
-97.888543819998148
 30
0.0
 11
-284.0
 21
-62.11145618000171
 31
0.0
  0
LINE
  5
11A
  8
PATTERN_FILL
  6
CONTINUOUS
 62
     7
 10
-286.0
 20
-99.493588689617795
 30
0.0
 11
-286.0
 21
-60.506411310382077
 31
0.0
  0
LINE
  5
11B
  8
PATTERN_FILL
  6
CONTINUOUS
 62
     7
 10
-288.0
 20
-100.7846096908265
 30
0.0
 11
-288.0
 21
-59.215390309173472
 31
0.0
  0
LINE
  5
11C
  8
PATTERN_FILL
  6
CONTINUOUS
 62
     7
 10
-290.0
 20
-101.8174242292713
 30
0.0
 11
-290.0
 21
-58.18257577072859
 31
0.0
  0
LINE
  5
11D
  8
PATTERN_FILL
  6
CONTINUOUS
 62
     7
 10
-292.0
 20
-102.6274169979695
 30
0.0
 11
-292.0
 21
-57.372583002030538
 31
0.0
  0
LINE
  5
11E
  8
PATTERN_FILL
  6
CONTINUOUS
 62
     7
 10
-294.0
 20
-103.2379000772446
 30
0.0
 11
-294.0
 21
-56.762099922755397
 31
0.0
  0
LINE
  5
11F
  8
PATTERN_FILL
  6
CONTINUOUS
 62
     7
 10
-296.0
 20
-103.6643191323985
 30
0.0
 11
-296.0
 21
-56.335680867601702
 31
0.0
  0
LINE
  5
120
  8
PATTERN_FILL
  6
CONTINUOUS
 62
     7
 10
-298.0
 20
-103.9165214862027
 30
0.0
 11
-298.0
 21
-56.083478513797218
 31
0.0
  0
LINE
  5
121
  8
PATTERN_FILL
  6
CONTINUOUS
 62
     7
 10
-300.0
 20
-103.9999999999998
 30
0.0
 11
-300.0
 21
-56.0
 31
0.0
  0
LINE
  5
122
  8
PATTERN_FILL
  6
CONTINUOUS
 62
     7
 10
-302.0
 20
-103.9165214862027
 30
0.0
 11
-302.0
 21
-56.083478513797218
 31
0.0
  0
LINE
  5
123
  8
PATTERN_FILL
  6
CONTINUOUS
 62
     7
 10
-304.0
 20
-103.69158945763721
 30
0.0
 11
-304.0
 21
-56.335680867601702
 31
0.0
  0
LINE
  5
124
  8
PATTERN_FILL
  6
CONTINUOUS
 62
     7
 10
-306.0
 20
-103.2379000772446
 30
0.0
 11
-306.0
 21
-56.762099922755397
 31
0.0
  0
LINE
  5
125
  8
PATTERN_FILL
  6
CONTINUOUS
 62
     7
 10
-308.0
 20
-102.6274169979695
 30
0.0
 11
-308.0
 21
-57.372583002030538
 31
0.0
  0
LINE
  5
126
  8
PATTERN_FILL
  6
CONTINUOUS
 62
     7
 10
-310.0
 20
-101.8174242292713
 30
0.0
 11
-310.0
 21
-58.18257577072859
 31
0.0
  0
LINE
  5
127
  8
PATTERN_FILL
  6
CONTINUOUS
 62
     7
 10
-312.0
 20
-100.7846096908265
 30
0.0
 11
-312.0
 21
-59.215390309173472
 31
0.0
  0
LINE
  5
128
  8
PATTERN_FILL
  6
CONTINUOUS
 62
     7
 10
-314.0
 20
-99.493588689617795
 30
0.0
 11
-314.0
 21
-60.506411310381957
 31
0.0
  0
LINE
  5
129
  8
PATTERN_FILL
  6
CONTINUOUS
 62
     7
 10
-316.0
 20
-97.888543819998148
 30
0.0
 11
-316.0
 21
-62.111456180001603
 31
0.0
  0
LINE
  5
12A
  8
PATTERN_FILL
  6
CONTINUOUS
 62
     7
 10
-318.0
 20
-95.874507866387503
 30
0.0
 11
-318.0
 21
-64.125492133612283
 31
0.0
  0
LINE
  5
12B
  8
PATTERN_FILL
  6
CONTINUOUS
 62
     7
 10
-320.0
 20
-93.266499161421507
 30
0.0
 11
-320.0
 21
-66.733500838578379
 31
0.0
  0
LINE
  5
12C
  8
PATTERN_FILL
  6
CONTINUOUS
 62
     7
 10
-322.0
 20
-89.591663046625285
 30
0.0
 11
-322.0
 21
-70.408336953374601
 31
0.0
  0
LINE
  5
12D
  8
SPEC
  6
CONTINUOUS
 62
     7
 10
-412.49999999999989
 20
614.12725999999986
 30
0.0
 11
400.0
 21
614.12725999999986
 31
0.0
  0
LINE
  5
12E
  8
SPEC
  6
CONTINUOUS
 62
     7
 10
-412.49999999999989
 20
595.37725999999975
 30
0.0
 11
400.0
 21
595.37725999999975
 31
0.0
  0
LINE
  5
12F
  8
SPEC
  6
CONTINUOUS
 62
     7
 10
-412.49999999999989
 20
220.37725999999981
 30
0.0
 11
400.0
 21
220.37725999999981
 31
0.0
  0
LINE
  5
130
  8
SPEC
  6
CONTINUOUS
 62
     7
 10
-412.49999999999989
 20
614.12725999999986
 30
0.0
 11
-412.49999999999989
 21
220.37725999999981
 31
0.0
  0
TEXT
  5
131
  8
SPEC
 62
     7
 10
-406.24999999999989
 20
621.09360999999967
 30
0.0
 40
12.21630859375
  1
仕様
 11
-406.24999999999989
 21
633.30991859374979
 31
0.0
 73
     3
  0
LINE
  5
132
  8
SPEC
  6
CONTINUOUS
 62
     7
 10
-175.0
 20
614.12725999999986
 30
0.0
 11
-175.0
 21
220.37725999999981
 31
0.0
  0
LINE
  5
133
  8
SPEC
  6
CONTINUOUS
 62
     7
 10
400.0
 20
614.12725999999986
 30
0.0
 11
400.0
 21
220.37725999999981
 31
0.0
  0
LINE
  5
134
  8
SPEC
  6
CONTINUOUS
 62
     7
 10
-412.49999999999989
 20
557.87725999999986
 30
0.0
 11
400.0
 21
557.87725999999986
 31
0.0
  0
LINE
  5
135
  8
SPEC
  6
CONTINUOUS
 62
     7
 10
-412.49999999999989
 20
539.12725999999986
 30
0.0
 11
400.0
 21
539.12725999999986
 31
0.0
  0
LINE
  5
136
  8
SPEC
  6
CONTINUOUS
 62
     7
 10
-412.49999999999989
 20
520.37725999999986
 30
0.0
 11
400.0
 21
520.37725999999986
 31
0.0
  0
LINE
  5
137
  8
SPEC
  6
CONTINUOUS
 62
     7
 10
-412.49999999999989
 20
501.62725999999992
 30
0.0
 11
400.0
 21
501.62725999999992
 31
0.0
  0
LINE
  5
138
  8
SPEC
  6
CONTINUOUS
 62
     7
 10
-412.49999999999989
 20
482.87725999999992
 30
0.0
 11
400.0
 21
482.87725999999992
 31
0.0
  0
LINE
  5
139
  8
SPEC
  6
CONTINUOUS
 62
     7
 10
-412.49999999999989
 20
464.12725999999992
 30
0.0
 11
400.0
 21
464.12725999999992
 31
0.0
  0
LINE
  5
13A
  8
SPEC
  6
CONTINUOUS
 62
     7
 10
-412.49999999999989
 20
445.37725999999992
 30
0.0
 11
400.0
 21
445.37725999999992
 31
0.0
  0
LINE
  5
13B
  8
SPEC
  6
CONTINUOUS
 62
     7
 10
-412.49999999999989
 20
426.62725999999981
 30
0.0
 11
400.0
 21
426.62725999999981
 31
0.0
  0
LINE
  5
13C
  8
SPEC
  6
CONTINUOUS
 62
     7
 10
-325.0
 20
407.87725999999981
 30
0.0
 11
400.0
 21
407.87725999999981
 31
0.0
  0
LINE
  5
13D
  8
SPEC
  6
CONTINUOUS
 62
     7
 10
-412.49999999999989
 20
389.12725999999992
 30
0.0
 11
400.0
 21
389.12725999999992
 31
0.0
  0
LINE
  5
13E
  8
SPEC
  6
CONTINUOUS
 62
     7
 10
-412.49999999999989
 20
370.37725999999992
 30
0.0
 11
400.0
 21
370.37725999999992
 31
0.0
  0
LINE
  5
13F
  8
SPEC
  6
CONTINUOUS
 62
     7
 10
-325.0
 20
351.62725999999992
 30
0.0
 11
400.0
 21
351.62725999999992
 31
0.0
  0
LINE
  5
140
  8
SPEC
  6
CONTINUOUS
 62
     7
 10
-412.49999999999989
 20
332.87725999999981
 30
0.0
 11
400.0
 21
332.87725999999981
 31
0.0
  0
LINE
  5
141
  8
SPEC
  6
CONTINUOUS
 62
     7
 10
-325.0
 20
314.12725999999981
 30
0.0
 11
400.0
 21
314.12725999999981
 31
0.0
  0
LINE
  5
142
  8
SPEC
  6
CONTINUOUS
 62
     7
 10
-412.49999999999989
 20
295.37725999999981
 30
0.0
 11
400.0
 21
295.37725999999981
 31
0.0
  0
LINE
  5
143
  8
SPEC
  6
CONTINUOUS
 62
     7
 10
-325.0
 20
276.62725999999992
 30
0.0
 11
400.0
 21
276.62725999999992
 31
0.0
  0
LINE
  5
144
  8
SPEC
  6
CONTINUOUS
 62
     7
 10
-412.49999999999989
 20
257.87725999999992
 30
0.0
 11
400.0
 21
257.87725999999992
 31
0.0
  0
TEXT
  5
145
  8
SPEC
 62
     7
 10
-170.5
 20
243.0668488888887
 30
0.0
 40
9.5015733506944464
  1
電源ユニット、サスペンション付ホルダー、交換用サスペンションゴム、キャリングハードケース、
 11
-170.5
 21
252.56842223958321
 31
0.0
 73
     3
  0
TEXT
  5
146
  8
SPEC
 62
     7
 10
-408.0
 20
599.31684888888856
 30
0.0
 40
9.5015733506944464
  1
形式
 11
-408.0
 21
608.81842223958313
 31
0.0
 73
     3
  0
TEXT
  5
147
  8
SPEC
 62
     7
 10
-170.5
 20
599.31684888888856
 30
0.0
 40
9.5015733506944464
  1
コンデンサー型 
 11
-170.5
 21
608.81842223958313
 31
0.0
 73
     3
  0
TEXT
  5
148
  8
SPEC
 62
     7
 10
-408.0
 20
580.56684888888856
 30
0.0
 40
9.5015733506944464
  1
指向特性
 11
-408.0
 21
590.06842223958313
 31
0.0
 73
     3
  0
TEXT
  5
149
  8
SPEC
 62
     7
 10
-170.5
 20
580.56684888888856
 30
0.0
 40
9.5015733506944464
  1
無指向性/ワイドカーディオイド/カーディオイド/ハイパーカーディオイド/双指向性と各々の間の
 11
-170.5
 21
590.06842223958313
 31
0.0
 73
     3
  0
TEXT
  5
14A
  8
SPEC
 62
     7
 10
-170.5
 20
561.81684888888856
 30
0.0
 40
9.5015733506944464
  1
9段階(電源ユニットで切替)
 11
-170.5
 21
571.31842223958313
 31
0.0
 73
     3
  0
TEXT
  5
14B
  8
SPEC
 62
     7
 10
-408.0
 20
543.06684888888856
 30
0.0
 40
9.5015733506944464
  1
周波数特性
 11
-408.0
 21
552.56842223958313
 31
0.0
 73
     3
  0
TEXT
  5
14C
  8
SPEC
 62
     7
 10
-170.5
 20
543.06684888888856
 30
0.0
 40
9.5015733506944464
  1
20Hz～20kHz
 11
-170.5
 21
552.56842223958313
 31
0.0
 73
     3
  0
TEXT
  5
14D
  8
SPEC
 62
     7
 10
-408.0
 20
524.31684888888856
 30
0.0
 40
9.5015733506944464
  1
開回路感度
 11
-408.0
 21
533.81842223958313
 31
0.0
 73
     3
  0
TEXT
  5
14E
  8
SPEC
 62
     7
 10
-170.5
 20
524.31684888888856
 30
0.0
 40
9.5015733506944464
  1
-34dB re 1V/Pa
 11
-170.5
 21
533.81842223958313
 31
0.0
 73
     3
  0
TEXT
  5
14F
  8
SPEC
 62
     7
 10
-408.0
 20
505.56684888888861
 30
0.0
 40
9.5015733506944464
  1
最大音圧レベル
 11
-408.0
 21
515.06842223958313
 31
0.0
 73
     3
  0
TEXT
  5
150
  8
SPEC
 62
     7
 10
-170.5
 20
505.56684888888861
 30
0.0
 40
9.5015733506944464
  1
135dB SPL(パッドOFF)
 11
-170.5
 21
515.06842223958313
 31
0.0
 73
     3
  0
TEXT
  5
151
  8
SPEC
 62
     7
 10
-408.0
 20
486.81684888888861
 30
0.0
 40
9.5015733506944464
  1
等価雑音レベル
 11
-408.0
 21
496.31842223958307
 31
0.0
 73
     3
  0
TEXT
  5
152
  8
SPEC
 62
     7
 10
-170.5
 20
486.81684888888861
 30
0.0
 40
9.5015733506944464
  1
16dB SPL(Aウェイト)
 11
-170.5
 21
496.31842223958307
 31
0.0
 73
     3
  0
TEXT
  5
153
  8
SPEC
 62
     7
 10
-408.0
 20
468.06684888888861
 30
0.0
 40
9.5015733506944464
  1
パッド
 11
-408.0
 21
477.56842223958307
 31
0.0
 73
     3
  0
TEXT
  5
154
  8
SPEC
 62
     7
 10
-170.5
 20
468.06684888888861
 30
0.0
 40
9.5015733506944464
  1
0/20dB(電源ユニットで切替)
 11
-170.5
 21
477.56842223958307
 31
0.0
 73
     3
  0
TEXT
  5
155
  8
SPEC
 62
     7
 10
-170.5
 20
449.31684888888861
 30
0.0
 40
9.5015733506944464
  1
Flat/80Hz(12dB/oct)(電源ユニットで切替)
 11
-170.5
 21
458.81842223958307
 31
0.0
 73
     3
  0
TEXT
  5
156
  8
SPEC
 62
     7
 10
-408.0
 20
449.31684888888861
 30
0.0
 40
9.5015733506944464
  1
ローカットフィルター
 11
-408.0
 21
458.81842223958307
 31
0.0
 73
     3
  0
TEXT
  5
157
  8
SPEC
 62
     7
 10
-408.0
 20
430.56684888888861
 30
0.0
 40
9.5015733506944464
  1
インピーダンス
 11
-408.0
 21
440.06842223958307
 31
0.0
 73
     3
  0
TEXT
  5
158
  8
SPEC
 62
     7
 10
-170.5
 20
430.56684888888861
 30
0.0
 40
9.5015733506944464
  1
200\U+03A9以下
 11
-170.5
 21
440.06842223958307
 31
0.0
 73
     3
  0
TEXT
  5
159
  8
SPEC
 62
     7
 10
-408.0
 20
411.81684888888861
 30
0.0
 40
9.5015733506944464
  1
電源
 11
-408.0
 21
421.31842223958307
 31
0.0
 73
     3
  0
TEXT
  5
15A
  8
SPEC
 62
     7
 10
-320.5
 20
411.81684888888861
 30
0.0
 40
9.5015733506944464
  1
マイクロホン
 11
-320.5
 21
421.31842223958307
 31
0.0
 73
     3
  0
TEXT
  5
15B
  8
SPEC
 62
     7
 10
-320.5
 20
393.06684888888873
 30
0.0
 40
9.5015733506944464
  1
電源ユニット
 11
-320.5
 21
402.56842223958307
 31
0.0
 73
     3
  0
TEXT
  5
15C
  8
SPEC
 62
     7
 10
-170.5
 20
411.81684888888861
 30
0.0
 40
9.5015733506944464
  1
電源ユニットから供給
 11
-170.5
 21
421.31842223958307
 31
0.0
 73
     3
  0
TEXT
  5
15D
  8
SPEC
 62
     7
 10
-170.5
 20
393.06684888888873
 30
0.0
 40
9.5015733506944464
  1
AC100V、50/60Hz
 11
-170.5
 21
402.56842223958307
 31
0.0
 73
     3
  0
LINE
  5
15E
  8
SPEC
  6
CONTINUOUS
 62
     7
 10
-325.0
 20
426.62725999999981
 30
0.0
 11
-325.0
 21
257.87725999999992
 31
0.0
  0
TEXT
  5
15F
  8
SPEC
 62
     7
 10
-170.5
 20
374.31684888888873
 30
0.0
 40
9.5015733506944464
  1
12W
 11
-170.5
 21
383.81842223958307
 31
0.0
 73
     3
  0
TEXT
  5
160
  8
SPEC
 62
     7
 10
-408.0
 20
374.31684888888873
 30
0.0
 40
9.5015733506944464
  1
消費電力
 11
-408.0
 21
383.81842223958307
 31
0.0
 73
     3
  0
TEXT
  5
161
  8
SPEC
 62
     7
 10
-320.5
 20
374.31684888888873
 30
0.0
 40
9.5015733506944464
  1
電源ユニット
 11
-320.5
 21
383.81842223958307
 31
0.0
 73
     3
  0
TEXT
  5
162
  8
SPEC
 62
     7
 10
-408.0
 20
355.56684888888873
 30
0.0
 40
9.5015733506944464
  1
コネクター
 11
-408.0
 21
365.06842223958319
 31
0.0
 73
     3
  0
TEXT
  5
163
  8
SPEC
 62
     7
 10
-320.5
 20
336.81684888888873
 30
0.0
 40
9.5015733506944464
  1
電源ユニット
 11
-320.5
 21
346.31842223958319
 31
0.0
 73
     3
  0
TEXT
  5
164
  8
SPEC
 62
     7
 10
-170.5
 20
336.81684888888873
 30
0.0
 40
9.5015733506944464
  1
入力:XLR 7ピン、メス　出力:XLR 3ピン、オス
 11
-170.5
 21
346.31842223958319
 31
0.0
 73
     3
  0
TEXT
  5
165
  8
SPEC
 62
     7
 10
-170.5
 20
355.56684888888873
 30
0.0
 40
9.5015733506944464
  1
XLR 7ピン、オス
 11
-170.5
 21
365.06842223958319
 31
0.0
 73
     3
  0
TEXT
  5
166
  8
SPEC
 62
     7
 10
-320.5
 20
355.56684888888873
 30
0.0
 40
9.5015733506944464
  1
マイクロホン
 11
-320.5
 21
365.06842223958319
 31
0.0
 73
     3
  0
TEXT
  5
167
  8
SPEC
 62
     7
 10
-320.5
 20
318.06684888888873
 30
0.0
 40
9.5015733506944464
  1
マイクロホン(\U+03C6x全長)
 11
-320.5
 21
327.56842223958319
 31
0.0
 73
     3
  0
TEXT
  5
168
  8
SPEC
 62
     7
 10
-408.0
 20
318.06684888888873
 30
0.0
 40
9.5015733506944464
  1
寸法
 11
-408.0
 21
327.56842223958319
 31
0.0
 73
     3
  0
TEXT
  5
169
  8
SPEC
 62
     7
 10
-320.5
 20
299.31684888888873
 30
0.0
 40
9.5015733506944464
  1
電源ユニット(W\U+00D7H\U+00D7D)
 11
-320.5
 21
308.81842223958319
 31
0.0
 73
     3
  0
TEXT
  5
16A
  8
SPEC
 62
     7
 10
-170.5
 20
318.06684888888873
 30
0.0
 40
9.5015733506944464
  1
54\U+00D7212mm
 11
-170.5
 21
327.56842223958319
 31
0.0
 73
     3
  0
TEXT
  5
16B
  8
SPEC
 62
     7
 10
-170.5
 20
299.31684888888873
 30
0.0
 40
9.5015733506944464
  1
235\U+00D765\U+00D7151mm(除突起部)
 11
-170.5
 21
308.81842223958319
 31
0.0
 73
     3
  0
TEXT
  5
16C
  8
SPEC
 62
     7
 10
-320.5
 20
280.56684888888873
 30
0.0
 40
9.5015733506944464
  1
マイクロホン
 11
-320.5
 21
290.06842223958319
 31
0.0
 73
     3
  0
TEXT
  5
16D
  8
SPEC
 62
     7
 10
-320.5
 20
261.81684888888873
 30
0.0
 40
9.5015733506944464
  1
電源ユニット
 11
-320.5
 21
271.31842223958319
 31
0.0
 73
     3
  0
TEXT
  5
16E
  8
SPEC
 62
     7
 10
-170.5
 20
280.56684888888873
 30
0.0
 40
9.5015733506944464
  1
740g
 11
-170.5
 21
290.06842223958319
 31
0.0
 73
     3
  0
TEXT
  5
16F
  8
SPEC
 62
     7
 10
-170.5
 20
261.81684888888873
 30
0.0
 40
9.5015733506944464
  1
1.7kg
 11
-170.5
 21
271.31842223958319
 31
0.0
 73
     3
  0
TEXT
  5
170
  8
SPEC
 62
     7
 10
-408.0
 20
280.56684888888873
 30
0.0
 40
9.5015733506944464
  1
質量
 11
-408.0
 21
290.06842223958319
 31
0.0
 73
     3
  0
TEXT
  5
171
  8
SPEC
 62
     7
 10
-408.0
 20
243.0668488888887
 30
0.0
 40
9.5015733506944464
  1
付属品
 11
-408.0
 21
252.56842223958321
 31
0.0
 73
     3
  0
TEXT
  5
172
  8
SPEC
 62
     7
 10
-170.5
 20
224.31684888888881
 30
0.0
 40
9.5015733506944464
  1
接続ケーブル(XLR 7ピン、オス-メス、約8m)、電源コード、和文取扱説明書
 11
-170.5
 21
233.81842223958321
 31
0.0
 73
     3
  0
TEXT
  5
173
  8
DIMNSIONS
 62
     7
 10
-99.999999999999957
 20
-574.52528999999993
 30
0.0
 40
12.21630859375
  1
(単位：mm)
 11
-99.999999999999957
 21
-562.30898140624993
 31
0.0
 73
     3
  0
LINE
  5
174
  8
DIMNSIONS
  6
CONTINUOUS
 62
     7
 10
-10.0
 20
-350.0
 30
0.0
 11
-47.5
 21
-350.0
 31
0.0
  0
LINE
  5
175
  8
DIMNSIONS
  6
CONTINUOUS
 62
     7
 10
-10.0
 20
-284.9999999999996
 30
0.0
 11
-47.5
 21
-284.9999999999996
 31
0.0
  0
LINE
  5
176
  8
DIMNSIONS
  6
CONTINUOUS
 62
     7
 10
-37.5
 20
-350.0
 30
0.0
 11
-37.5
 21
-284.9999999999996
 31
0.0
  0
LINE
  5
177
  8
DIMNSIONS
  6
CONTINUOUS
 62
     7
 10
-37.5
 20
-350.0
 30
0.0
 11
-40.850198975751212
 21
-337.49688720703119
 31
0.0
  0
LINE
  5
178
  8
DIMNSIONS
  6
CONTINUOUS
 62
     7
 10
-37.5
 20
-350.0
 30
0.0
 11
-34.149801024248788
 21
-337.49688720703119
 31
0.0
  0
LINE
  5
179
  8
DIMNSIONS
  6
CONTINUOUS
 62
     7
 10
-37.5
 20
-284.9999999999996
 30
0.0
 11
-34.149801024248788
 21
-297.50311279296841
 31
0.0
  0
LINE
  5
17A
  8
DIMNSIONS
  6
CONTINUOUS
 62
     7
 10
-37.5
 20
-284.9999999999996
 30
0.0
 11
-40.850198975751212
 21
-297.50311279296841
 31
0.0
  0
TEXT
  5
17B
  8
DIMNSIONS
 62
     7
 10
-41.469444444444441
 20
-335.13888888888869
 30
0.0
 40
13.57367621527778
  1
65.0
 50
90.0
 11
-55.04312065972222
 21
-335.13888888888869
 31
0.0
 73
     3
  0
LINE
  5
17C
  8
DIMNSIONS
  6
CONTINUOUS
 62
     7
 10
-10.0
 20
-200.0
 30
0.0
 11
-47.5
 21
-200.0
 31
0.0
  0
LINE
  5
17D
  8
DIMNSIONS
  6
CONTINUOUS
 62
     7
 10
-10.0
 20
-48.999999999999488
 30
0.0
 11
-47.5
 21
-48.999999999999488
 31
0.0
  0
LINE
  5
17E
  8
DIMNSIONS
  6
CONTINUOUS
 62
     7
 10
-37.5
 20
-200.0
 30
0.0
 11
-37.5
 21
-48.999999999999488
 31
0.0
  0
LINE
  5
17F
  8
DIMNSIONS
  6
CONTINUOUS
 62
     7
 10
-37.5
 20
-200.0
 30
0.0
 11
-40.850198975751212
 21
-187.49688720703119
 31
0.0
  0
LINE
  5
180
  8
DIMNSIONS
  6
CONTINUOUS
 62
     7
 10
-37.5
 20
-200.0
 30
0.0
 11
-34.149801024248788
 21
-187.49688720703119
 31
0.0
  0
LINE
  5
181
  8
DIMNSIONS
  6
CONTINUOUS
 62
     7
 10
-37.5
 20
-48.999999999999488
 30
0.0
 11
-34.149801024248788
 21
-61.503112792968253
 31
0.0
  0
LINE
  5
182
  8
DIMNSIONS
  6
CONTINUOUS
 62
     7
 10
-37.5
 20
-48.999999999999488
 30
0.0
 11
-40.850198975751212
 21
-61.503112792968253
 31
0.0
  0
TEXT
  5
183
  8
DIMNSIONS
 62
     7
 10
-41.469444444444441
 20
-137.7291666666664
 30
0.0
 40
13.57367621527778
  1
151
 50
90.0
 11
-55.04312065972222
 21
-137.7291666666664
 31
0.0
 73
     3
  0
LINE
  5
184
  8
DIMNSIONS
  6
CONTINUOUS
 62
     7
 10
146.0
 20
-213.5000000000002
 30
0.0
 11
-47.5
 21
-213.5000000000002
 31
0.0
  0
LINE
  5
185
  8
DIMNSIONS
  6
CONTINUOUS
 62
     7
 10
-10.0
 20
-200.0
 30
0.0
 11
-47.5
 21
-200.0
 31
0.0
  0
LINE
  5
186
  8
DIMNSIONS
  6
CONTINUOUS
 62
     7
 10
-37.5
 20
-200.0
 30
0.0
 11
-37.5
 21
-213.5000000000002
 31
0.0
  0
LINE
  5
187
  8
DIMNSIONS
  6
CONTINUOUS
 62
     7
 10
-37.5
 20
-213.5000000000002
 30
0.0
 11
-37.5
 21
-258.0944444444446
 31
0.0
  0
LINE
  5
188
  8
DIMNSIONS
  6
CONTINUOUS
 62
     7
 10
-37.5
 20
-213.5000000000002
 30
0.0
 11
-34.149801024248788
 21
-226.00311279296889
 31
0.0
  0
LINE
  5
189
  8
DIMNSIONS
  6
CONTINUOUS
 62
     7
 10
-37.5
 20
-213.5000000000002
 30
0.0
 11
-40.850198975751212
 21
-226.00311279296889
 31
0.0
  0
LINE
  5
18A
  8
DIMNSIONS
  6
CONTINUOUS
 62
     7
 10
-37.5
 20
-200.0
 30
0.0
 11
-37.5
 21
-175.0
 31
0.0
  0
LINE
  5
18B
  8
DIMNSIONS
  6
CONTINUOUS
 62
     7
 10
-37.5
 20
-200.0
 30
0.0
 11
-40.850198975751212
 21
-187.49688720703119
 31
0.0
  0
LINE
  5
18C
  8
DIMNSIONS
  6
CONTINUOUS
 62
     7
 10
-37.5
 20
-200.0
 30
0.0
 11
-34.149801024248788
 21
-187.49688720703119
 31
0.0
  0
TEXT
  5
18D
  8
DIMNSIONS
 62
     7
 10
-41.469444444444441
 20
-258.0944444444446
 30
0.0
 40
13.57367621527778
  1
13.5
 50
90.0
 11
-55.04312065972222
 21
-258.0944444444446
 31
0.0
 73
     3
  0
LINE
  5
18E
  8
DIMNSIONS
  6
CONTINUOUS
 62
     7
 10
0.0
 20
-358.0
 30
0.0
 11
0.0
 21
-410.0
 31
0.0
  0
LINE
  5
18F
  8
DIMNSIONS
  6
CONTINUOUS
 62
     7
 10
235.0
 20
-358.0
 30
0.0
 11
235.0
 21
-410.0
 31
0.0
  0
LINE
  5
190
  8
DIMNSIONS
  6
CONTINUOUS
 62
     7
 10
0.0
 20
-400.0
 30
0.0
 11
235.0
 21
-400.0
 31
0.0
  0
LINE
  5
191
  8
DIMNSIONS
  6
CONTINUOUS
 62
     7
 10
0.0
 20
-400.0
 30
0.0
 11
12.50311279296875
 21
-396.6498010242488
 31
0.0
  0
LINE
  5
192
  8
DIMNSIONS
  6
CONTINUOUS
 62
     7
 10
0.0
 20
-400.0
 30
0.0
 11
12.50311279296875
 21
-403.35019897575108
 31
0.0
  0
LINE
  5
193
  8
DIMNSIONS
  6
CONTINUOUS
 62
     7
 10
235.0
 20
-400.0
 30
0.0
 11
222.49688720703119
 21
-403.35019897575108
 31
0.0
  0
LINE
  5
194
  8
DIMNSIONS
  6
CONTINUOUS
 62
     7
 10
235.0
 20
-400.0
 30
0.0
 11
222.49688720703119
 21
-396.6498010242488
 31
0.0
  0
TEXT
  5
195
  8
DIMNSIONS
 62
     7
 10
104.2708333333333
 20
-396.03055555555562
 30
0.0
 40
13.57367621527778
  1
235
 11
104.2708333333333
 21
-382.45687934027779
 31
0.0
 73
     3
  0
LINE
  5
196
  8
DIMNSIONS
  6
CONTINUOUS
 62
     7
 10
-3.5
 20
-356.00000000000023
 30
0.0
 11
-47.5
 21
-356.00000000000023
 31
0.0
  0
LINE
  5
197
  8
DIMNSIONS
  6
CONTINUOUS
 62
     7
 10
-8.0
 20
-350.0
 30
0.0
 11
-47.5
 21
-350.0
 31
0.0
  0
LINE
  5
198
  8
DIMNSIONS
  6
CONTINUOUS
 62
     7
 10
-37.5
 20
-350.0
 30
0.0
 11
-37.5
 21
-356.00000000000023
 31
0.0
  0
LINE
  5
199
  8
DIMNSIONS
  6
CONTINUOUS
 62
     7
 10
-37.5
 20
-356.00000000000023
 30
0.0
 11
-37.5
 21
-395.5208333333336
 31
0.0
  0
LINE
  5
19A
  8
DIMNSIONS
  6
CONTINUOUS
 62
     7
 10
-37.5
 20
-356.00000000000023
 30
0.0
 11
-34.149801024248788
 21
-368.50311279296892
 31
0.0
  0
LINE
  5
19B
  8
DIMNSIONS
  6
CONTINUOUS
 62
     7
 10
-37.5
 20
-356.00000000000023
 30
0.0
 11
-40.850198975751212
 21
-368.50311279296892
 31
0.0
  0
LINE
  5
19C
  8
DIMNSIONS
  6
CONTINUOUS
 62
     7
 10
-37.5
 20
-350.0
 30
0.0
 11
-37.5
 21
-325.0
 31
0.0
  0
LINE
  5
19D
  8
DIMNSIONS
  6
CONTINUOUS
 62
     7
 10
-37.5
 20
-350.0
 30
0.0
 11
-40.850198975751212
 21
-337.49688720703119
 31
0.0
  0
LINE
  5
19E
  8
DIMNSIONS
  6
CONTINUOUS
 62
     7
 10
-37.5
 20
-350.0
 30
0.0
 11
-34.149801024248788
 21
-337.49688720703119
 31
0.0
  0
TEXT
  5
19F
  8
DIMNSIONS
 62
     7
 10
-41.469444444444399
 20
-395.5208333333336
 30
0.0
 40
13.57367621527778
  1
6.0
 50
90.0
 11
-55.043120659722177
 21
-395.5208333333336
 31
0.0
 73
     3
  0
LINE
  5
1A0
  8
DIMNSIONS
  6
CONTINUOUS
 62
     7
 10
-319.5
 20
-350.0
 30
0.0
 11
-372.5
 21
-350.0
 31
0.0
  0
LINE
  5
1A1
  8
DIMNSIONS
  6
CONTINUOUS
 62
     7
 10
-309.99999999999898
 20
-138.0
 30
0.0
 11
-372.5
 21
-138.0
 31
0.0
  0
LINE
  5
1A2
  8
DIMNSIONS
  6
CONTINUOUS
 62
     7
 10
-362.5
 20
-350.0
 30
0.0
 11
-362.5
 21
-138.0
 31
0.0
  0
LINE
  5
1A3
  8
DIMNSIONS
  6
CONTINUOUS
 62
     7
 10
-362.5
 20
-350.0
 30
0.0
 11
-365.8501989757512
 21
-337.49688720703119
 31
0.0
  0
LINE
  5
1A4
  8
DIMNSIONS
  6
CONTINUOUS
 62
     7
 10
-362.5
 20
-350.0
 30
0.0
 11
-359.1498010242488
 21
-337.49688720703119
 31
0.0
  0
LINE
  5
1A5
  8
DIMNSIONS
  6
CONTINUOUS
 62
     7
 10
-362.5
 20
-138.0
 30
0.0
 11
-359.1498010242488
 21
-150.50311279296869
 31
0.0
  0
LINE
  5
1A6
  8
DIMNSIONS
  6
CONTINUOUS
 62
     7
 10
-362.5
 20
-138.0
 30
0.0
 11
-365.8501989757512
 21
-150.50311279296869
 31
0.0
  0
TEXT
  5
1A7
  8
DIMNSIONS
 62
     7
 10
-366.46944444444449
 20
-257.22916666666669
 30
0.0
 40
13.57367621527778
  1
212
 50
90.0
 11
-380.04312065972221
 21
-257.22916666666669
 31
0.0
 73
     3
  0
LINE
  5
1A8
  8
DIMNSIONS
  6
CONTINUOUS
 62
     7
 10
-322.63797764011701
 20
-94.714685466076048
 30
0.0
 11
-350.0
 21
-112.5
 31
0.0
  0
LINE
  5
1A9
  8
DIMNSIONS
  6
CONTINUOUS
 62
     7
 10
-322.63797764011701
 20
-94.714685466076048
 30
0.0
 11
-331.13012042692668
 21
-104.4837782376316
 31
0.0
  0
LINE
  5
1AA
  8
DIMNSIONS
  6
CONTINUOUS
 62
     7
 10
-322.63797764011701
 20
-94.714685466076048
 30
0.0
 11
-334.87693541183683
 21
-98.92889658476534
 31
0.0
  0
LINE
  5
1AB
  8
DIMNSIONS
  6
CONTINUOUS
 62
     7
 10
-350.0
 20
-112.5
 30
0.0
 11
-360.0
 21
-112.5
 31
0.0
  0
TEXT
  5
1AC
  8
DIMNSIONS
 62
     7
 10
-412.91666666666652
 20
-118.84999999999999
 30
0.0
 40
13.57367621527778
  1
\U+03C654.0
 11
-412.91666666666652
 21
-105.27632378472219
 31
0.0
 73
     3
  0
TEXT
  5
1AD
  8
DATA
 62
     7
 10
-437.5
 20
-596.49135111111104
 30
0.0
 40
9.5015733506944464
  1
※仕様及び外観は予告なく変更されることがあります。
 11
-437.5
 21
-586.98977776041659
 31
0.0
 73
     3
  0
TEXT
  5
1AE
  8
DATA
 62
     7
 10
-437.5
 20
-608.83857333333333
 30
0.0
 40
9.5015733506944464
  1
　また、同一商品でも若干の個体差があることがあります。ご了承ください。
 11
-437.5
 21
-599.33699998263887
 31
0.0
 73
     3
  0
ARC
  5
1AF
  8
DATA
  6
CONTINUOUS
 62
     7
 10
2.0
 20
-286.9999999999996
 30
0.0
 40
2.0
 50
90.0
 51
180.0
  0
LINE
  5
1B0
  8
DATA
  6
CONTINUOUS
 62
     7
 10
0.0
 20
-348.0
 30
0.0
 11
0.0
 21
-286.9999999999996
 31
0.0
  0
ARC
  5
1B1
  8
DATA
  6
CONTINUOUS
 62
     7
 10
2.0000000000002269
 20
-347.99999999999977
 30
0.0
 40
2.0000000000002269
 50
180.00000000000659
 51
269.99999999999352
  0
LINE
  5
1B2
  8
DATA
  6
CONTINUOUS
 62
     7
 10
233.0
 20
-350.0
 30
0.0
 11
2.0
 21
-350.0
 31
0.0
  0
ARC
  5
1B3
  8
DATA
  6
CONTINUOUS
 62
     7
 10
233.0
 20
-348.0
 30
0.0
 40
2.0
 50
270.0
 51
0.0
  0
LINE
  5
1B4
  8
DATA
  6
CONTINUOUS
 62
     7
 10
235.0
 20
-286.9999999999996
 30
0.0
 11
235.0
 21
-348.0
 31
0.0
  0
ARC
  5
1B5
  8
DATA
  6
CONTINUOUS
 62
     7
 10
233.0
 20
-286.9999999999996
 30
0.0
 40
2.0
 50
0.0
 51
90.0
  0
LINE
  5
1B6
  8
DATA
  6
CONTINUOUS
 62
     7
 10
2.0
 20
-284.9999999999996
 30
0.0
 11
233.0
 21
-284.9999999999996
 31
0.0
  0
LINE
  5
1B7
  8
DATA
  6
CONTINUOUS
 62
     7
 10
275.0
 20
-350.0
 30
0.0
 11
275.0
 21
-284.9999999999996
 31
0.0
  0
LINE
  5
1B8
  8
DATA
  6
CONTINUOUS
 62
     7
 10
424.5
 20
-350.0
 30
0.0
 11
275.0
 21
-350.0
 31
0.0
  0
LINE
  5
1B9
  8
DATA
  6
CONTINUOUS
 62
     7
 10
275.0
 20
-284.9999999999996
 30
0.0
 11
426.0
 21
-284.9999999999996
 31
0.0
  0
POLYLINE
  5
1BA
  8
DATA
  6
CONTINUOUS
 62
     7
 66
     1
 10
0.0
 20
0.0
 30
0.0
 70
     1
  0
VERTEX
  5
475
  8
DATA
  6
CONTINUOUS
 62
     7
 10
0.0
 20
-49.0
 30
0.0
  0
VERTEX
  5
476
  8
DATA
  6
CONTINUOUS
 62
     7
 10
235.0
 20
-49.0
 30
0.0
  0
VERTEX
  5
477
  8
DATA
  6
CONTINUOUS
 62
     7
 10
235.0
 20
-200.0
 30
0.0
  0
VERTEX
  5
478
  8
DATA
  6
CONTINUOUS
 62
     7
 10
0.0
 20
-200.0
 30
0.0
  0
SEQEND
  5
479
  8
DATA
  6
CONTINUOUS
 62
     7
  0
CIRCLE
  5
1C1
  8
DATA
  6
CONTINUOUS
 62
     7
 10
168.0
 20
-316.99999999999972
 30
0.0
 40
12.0
  0
CIRCLE
  5
1C2
  8
DATA
  6
CONTINUOUS
 62
     7
 10
7.0
 20
-292.49999999999972
 30
0.0
 40
2.6999999999999309
  0
CIRCLE
  5
1C3
  8
DATA
  6
CONTINUOUS
 62
     7
 10
7.0
 20
-342.5
 30
0.0
 40
2.6999999999999309
  0
CIRCLE
  5
1C4
  8
DATA
  6
CONTINUOUS
 62
     7
 10
228.0
 20
-292.49999999999972
 30
0.0
 40
2.6999999999999309
  0
CIRCLE
  5
1C5
  8
DATA
  6
CONTINUOUS
 62
     7
 10
228.0
 20
-342.5
 30
0.0
 40
2.6999999999999309
  0
POLYLINE
  5
1C6
  8
DATA
  6
CONTINUOUS
 62
     7
 66
     1
 10
0.0
 20
0.0
 30
0.0
 70
     1
  0
VERTEX
  5
47A
  8
DATA
  6
CONTINUOUS
 62
     7
 10
8.623593350969827
 20
-291.56261794176271
 30
0.0
  0
VERTEX
  5
47B
  8
DATA
  6
CONTINUOUS
 62
     7
 10
7.0
 20
-290.62523588352587
 30
0.0
  0
VERTEX
  5
47C
  8
DATA
  6
CONTINUOUS
 62
     7
 10
5.3764066490301721
 20
-291.56261794176271
 30
0.0
  0
VERTEX
  5
47D
  8
DATA
  6
CONTINUOUS
 62
     7
 10
5.3764066490301721
 20
-293.43738205823661
 30
0.0
  0
VERTEX
  5
47E
  8
DATA
  6
CONTINUOUS
 62
     7
 10
7.0
 20
-294.37476411647373
 30
0.0
  0
VERTEX
  5
47F
  8
DATA
  6
CONTINUOUS
 62
     7
 10
8.623593350969827
 20
-293.43738205823661
 30
0.0
  0
SEQEND
  5
480
  8
DATA
  6
CONTINUOUS
 62
     7
  0
POLYLINE
  5
1CF
  8
DATA
  6
CONTINUOUS
 62
     7
 66
     1
 10
0.0
 20
0.0
 30
0.0
 70
     1
  0
VERTEX
  5
481
  8
DATA
  6
CONTINUOUS
 62
     7
 10
226.37640664903009
 20
-291.56261794176271
 30
0.0
  0
VERTEX
  5
482
  8
DATA
  6
CONTINUOUS
 62
     7
 10
228.0
 20
-290.62523588352587
 30
0.0
  0
VERTEX
  5
483
  8
DATA
  6
CONTINUOUS
 62
     7
 10
229.62359335096991
 20
-291.56261794176271
 30
0.0
  0
VERTEX
  5
484
  8
DATA
  6
CONTINUOUS
 62
     7
 10
229.62359335096991
 20
-293.43738205823661
 30
0.0
  0
VERTEX
  5
485
  8
DATA
  6
CONTINUOUS
 62
     7
 10
228.0
 20
-294.37476411647373
 30
0.0
  0
VERTEX
  5
486
  8
DATA
  6
CONTINUOUS
 62
     7
 10
226.37640664903009
 20
-293.43738205823661
 30
0.0
  0
SEQEND
  5
487
  8
DATA
  6
CONTINUOUS
 62
     7
  0
POLYLINE
  5
1D8
  8
DATA
  6
CONTINUOUS
 62
     7
 66
     1
 10
0.0
 20
0.0
 30
0.0
 70
     1
  0
VERTEX
  5
488
  8
DATA
  6
CONTINUOUS
 62
     7
 10
8.623593350969827
 20
-343.43738205823712
 30
0.0
  0
VERTEX
  5
489
  8
DATA
  6
CONTINUOUS
 62
     7
 10
7.0
 20
-344.37476411647378
 30
0.0
  0
VERTEX
  5
48A
  8
DATA
  6
CONTINUOUS
 62
     7
 10
5.3764066490301721
 20
-343.43738205823712
 30
0.0
  0
VERTEX
  5
48B
  8
DATA
  6
CONTINUOUS
 62
     7
 10
5.3764066490301721
 20
-341.56261794176322
 30
0.0
  0
VERTEX
  5
48C
  8
DATA
  6
CONTINUOUS
 62
     7
 10
7.0
 20
-340.6252358835261
 30
0.0
  0
VERTEX
  5
48D
  8
DATA
  6
CONTINUOUS
 62
     7
 10
8.623593350969827
 20
-341.56261794176322
 30
0.0
  0
SEQEND
  5
48E
  8
DATA
  6
CONTINUOUS
 62
     7
  0
POLYLINE
  5
1E1
  8
DATA
  6
CONTINUOUS
 62
     7
 66
     1
 10
0.0
 20
0.0
 30
0.0
 70
     1
  0
VERTEX
  5
48F
  8
DATA
  6
CONTINUOUS
 62
     7
 10
226.37640664903009
 20
-343.43738205823712
 30
0.0
  0
VERTEX
  5
490
  8
DATA
  6
CONTINUOUS
 62
     7
 10
228.0
 20
-344.37476411647378
 30
0.0
  0
VERTEX
  5
491
  8
DATA
  6
CONTINUOUS
 62
     7
 10
229.62359335096991
 20
-343.43738205823712
 30
0.0
  0
VERTEX
  5
492
  8
DATA
  6
CONTINUOUS
 62
     7
 10
229.62359335096991
 20
-341.56261794176322
 30
0.0
  0
VERTEX
  5
493
  8
DATA
  6
CONTINUOUS
 62
     7
 10
228.0
 20
-340.6252358835261
 30
0.0
  0
VERTEX
  5
494
  8
DATA
  6
CONTINUOUS
 62
     7
 10
226.37640664903009
 20
-341.56261794176322
 30
0.0
  0
SEQEND
  5
495
  8
DATA
  6
CONTINUOUS
 62
     7
  0
CIRCLE
  5
1EA
  8
DATA
  6
CONTINUOUS
 62
     7
 10
208.0
 20
-327.0
 30
0.0
 40
2.5
  0
TEXT
  5
1EB
  8
DATA
 62
     7
 10
204.04066899970641
 20
-340.52509852315541
 30
0.0
 40
2.4432617187500001
  1
POWER
 11
204.04066899970641
 21
-338.08183680440538
 31
0.0
 73
     3
  0
ARC
  5
1EC
  8
DATA
  6
CONTINUOUS
 62
     7
 10
42.500000000000099
 20
-329.5
 30
0.0
 40
2.6500000000000572
 50
214.21395246413061
 51
145.78604753587069
  0
TEXT
  5
1ED
  8
DATA
 62
     7
 10
89.391863227175122
 20
-337.06153556707312
 30
0.0
 40
2.2517099999999992
  1
-20dB
 11
89.391863227175122
 21
-334.80982556707312
 31
0.0
 73
     3
  0
TEXT
  5
1EE
  8
DATA
 62
     7
 10
80.120594570180643
 20
-337.06153556707312
 30
0.0
 40
2.2517099999999992
  1
0
 11
80.120594570180643
 21
-334.80982556707312
 31
0.0
 73
     3
  0
LINE
  5
1EF
  8
DATA
  6
CONTINUOUS
 62
     7
 10
35.678366102205807
 20
-335.83700470604782
 30
0.0
 11
38.270366102205912
 21
-335.83700470604782
 31
0.0
  0
LINE
  5
1F0
  8
DATA
  6
CONTINUOUS
 62
     7
 10
45.753743574900902
 20
-335.83700470604782
 30
0.0
 11
48.345743574900887
 21
-335.83700470604782
 31
0.0
  0
LINE
  5
1F1
  8
DATA
  6
CONTINUOUS
 62
     7
 10
45.753743574900902
 20
-335.83700470604782
 30
0.0
 11
45.137781108311962
 21
-336.90388299373512
 31
0.0
  0
CIRCLE
  5
1F2
  8
DATA
  6
CONTINUOUS
 62
     7
 10
118.0
 20
-317.99999999999972
 30
0.0
 40
10.0
  0
TEXT
  5
1F3
  8
DATA
 62
     7
 10
111.9074662810752
 20
-336.85761118715192
 30
0.0
 40
5.7009440104166647
  1
AKG
 11
111.9074662810752
 21
-331.1566671767352
 31
0.0
 73
     3
  0
TEXT
  5
1F4
  8
DATA
 62
     7
 10
109.6312232691522
 20
-341.81629606524319
 30
0.0
 40
2.7364531249999988
  1
P820 TUBE
 11
109.6312232691522
 21
-339.07984294024322
 31
0.0
 73
     3
  0
LINE
  5
1F5
  8
DATA
  6
CONTINUOUS
 62
     7
 10
168.0
 20
-304.99999999999972
 30
0.0
 11
168.0
 21
-307.99999999999972
 31
0.0
  0
ARC
  5
1F6
  8
DATA
  6
STYLE_02
 62
     7
 10
168.0
 20
-316.99999999999972
 30
0.0
 40
16.00000000000016
 50
316.78502532701577
 51
83.007347934598286
  0
ARC
  5
1F7
  8
DATA
  6
STYLE_02
 62
     7
 10
168.0
 20
-316.99999999999972
 30
0.0
 40
16.00000000000016
 50
96.9926520654017
 51
223.21497467298431
  0
CIRCLE
  5
1F8
  8
DATA
  6
CONTINUOUS
 62
     7
 10
156.3393649422367
 20
-329.97476286313719
 30
0.0
 40
1.5
  0
CIRCLE
  5
1F9
  8
DATA
  6
CONTINUOUS
 62
     7
 10
179.6606350577633
 20
-329.22476286313719
 30
0.0
 40
0.75
  0
CIRCLE
  5
1FA
  8
DATA
  6
CONTINUOUS
 62
     7
 10
179.6606350577633
 20
-330.72476286313719
 30
0.0
 40
0.75
  0
ARC
  5
1FB
  8
DATA
  6
CONTINUOUS
 62
     7
 10
168.0
 20
-301.48127275490219
 30
0.0
 40
1.981272754902448
 50
358.57185864390561
 51
181.42814135610089
  0
ARC
  5
1FC
  8
DATA
  6
CONTINUOUS
 62
     7
 10
168.0
 20
-304.02943628796112
 30
0.0
 40
3.029436287961389
 50
53.060804660022967
 51
126.9391953399787
  0
ARC
  5
1FD
  8
DATA
  6
CONTINUOUS
 62
     7
 10
166.1193116265334
 20
-301.52816006924439
 30
0.0
 40
0.1000000000000376
 50
181.42814135617471
 51
306.93919533997052
  0
ARC
  5
1FE
  8
DATA
  6
CONTINUOUS
 62
     7
 10
169.88068837346651
 20
-301.52816006924439
 30
0.0
 40
0.1000000000000064
 50
233.06080465997741
 51
358.57185864395399
  0
TEXT
  5
1FF
  8
DATA
 62
     7
 10
46.004382580464487
 20
-317.41732328212009
 30
0.0
 40
2.9644908854166658
  1
REMOTE CONTROL UNIT
 11
46.004382580464487
 21
-314.4528323967034
 31
0.0
 73
     3
  0
ARC
  5
200
  8
DATA
  6
CONTINUOUS
 62
     7
 10
40.48104397311397
 20
-329.5
 30
0.0
 40
1.5
 50
90.0
 51
270.00000000001307
  0
LINE
  5
201
  8
DATA
  6
CONTINUOUS
 62
     7
 10
40.48104397311397
 20
-328.0
 30
0.0
 11
44.242924517685083
 21
-328.55015047210151
 31
0.0
  0
LINE
  5
202
  8
DATA
  6
CONTINUOUS
 62
     7
 10
40.48104397311397
 20
-331.0
 30
0.0
 11
44.242924517684848
 21
-330.44984952789849
 31
0.0
  0
ARC
  5
203
  8
DATA
  6
CONTINUOUS
 62
     7
 10
42.499999999999538
 20
-329.49999999999972
 30
0.0
 40
1.984943324127546
 50
225.22956734263241
 51
134.77043265738149
  0
ARC
  5
204
  8
DATA
  6
CONTINUOUS
 62
     7
 10
87.000000000000114
 20
-329.5
 30
0.0
 40
2.6500000000000572
 50
214.21395246413061
 51
145.78604753587069
  0
ARC
  5
205
  8
DATA
  6
CONTINUOUS
 62
     7
 10
84.98104397311397
 20
-329.5
 30
0.0
 40
1.5
 50
90.0
 51
270.00000000001307
  0
LINE
  5
206
  8
DATA
  6
CONTINUOUS
 62
     7
 10
84.98104397311397
 20
-328.0
 30
0.0
 11
88.742924517685097
 21
-328.55015047210151
 31
0.0
  0
LINE
  5
207
  8
DATA
  6
CONTINUOUS
 62
     7
 10
84.98104397311397
 20
-331.0
 30
0.0
 11
88.742924517684841
 21
-330.44984952789849
 31
0.0
  0
ARC
  5
208
  8
DATA
  6
CONTINUOUS
 62
     7
 10
86.999999999999545
 20
-329.49999999999972
 30
0.0
 40
1.984943324127546
 50
225.22956734263241
 51
134.77043265738149
  0
LINE
  5
209
  8
DATA
  6
CONTINUOUS
 62
     7
 10
0.0
 20
-200.0
 30
0.0
 11
235.0
 21
-200.0
 31
0.0
  0
LINE
  5
20A
  8
DATA
  6
CONTINUOUS
 62
     7
 10
0.0
 20
-195.0
 30
0.0
 11
235.0
 21
-195.0
 31
0.0
  0
LINE
  5
20B
  8
DATA
  6
CONTINUOUS
 62
     7
 10
156.0
 20
-200.0
 30
0.0
 11
180.0
 21
-200.0
 31
0.0
  0
LINE
  5
20C
  8
DATA
  6
CONTINUOUS
 62
     7
 10
156.19999999999999
 20
-213.5000000000002
 30
0.0
 11
179.5
 21
-213.5000000000002
 31
0.0
  0
LINE
  5
20D
  8
DATA
  6
CONTINUOUS
 62
     7
 10
156.0
 20
-213.3000000000001
 30
0.0
 11
156.0
 21
-200.0
 31
0.0
  0
LINE
  5
20E
  8
DATA
  6
CONTINUOUS
 62
     7
 10
180.0
 20
-213.0000000000002
 30
0.0
 11
180.0
 21
-200.0
 31
0.0
  0
ARC
  5
20F
  8
DATA
  6
CONTINUOUS
 62
     7
 10
40.409142356811337
 20
-203.44151687434291
 30
0.0
 40
1.4999999999998981
 50
129.99999999999591
 51
310.00000000001762
  0
LINE
  5
210
  8
DATA
  6
CONTINUOUS
 62
     7
 10
39.444960942281682
 20
-202.29245020966439
 30
0.0
 11
43.159676124091213
 21
-200.0
 31
0.0
  0
LINE
  5
211
  8
DATA
  6
CONTINUOUS
 62
     7
 10
41.37332377134112
 20
-204.5905835390214
 30
0.0
 11
45.460488909035227
 21
-200.0
 31
0.0
  0
ARC
  5
212
  8
DATA
  6
CONTINUOUS
 62
     7
 10
84.909142356811344
 20
-203.44151687434291
 30
0.0
 40
1.4999999999998981
 50
129.99999999999591
 51
310.00000000001762
  0
LINE
  5
213
  8
DATA
  6
CONTINUOUS
 62
     7
 10
83.944960942281682
 20
-202.29245020966439
 30
0.0
 11
87.65967612409122
 21
-200.0
 31
0.0
  0
LINE
  5
214
  8
DATA
  6
CONTINUOUS
 62
     7
 10
85.87332377134112
 20
-204.5905835390214
 30
0.0
 11
89.960488909035206
 21
-200.0
 31
0.0
  0
LINE
  5
215
  8
DATA
  6
CONTINUOUS
 62
     7
 10
6.5
 20
-350.0
 30
0.0
 11
6.5
 21
-356.00000000000023
 31
0.0
  0
LINE
  5
216
  8
DATA
  6
CONTINUOUS
 62
     7
 10
36.5
 20
-350.0
 30
0.0
 11
36.5
 21
-356.00000000000023
 31
0.0
  0
LINE
  5
217
  8
DATA
  6
CONTINUOUS
 62
     7
 10
6.5
 20
-356.00000000000023
 30
0.0
 11
36.5
 21
-356.00000000000023
 31
0.0
  0
LINE
  5
218
  8
DATA
  6
CONTINUOUS
 62
     7
 10
228.5
 20
-350.0
 30
0.0
 11
228.5
 21
-356.00000000000023
 31
0.0
  0
LINE
  5
219
  8
DATA
  6
CONTINUOUS
 62
     7
 10
198.5
 20
-350.0
 30
0.0
 11
198.5
 21
-356.00000000000023
 31
0.0
  0
LINE
  5
21A
  8
DATA
  6
CONTINUOUS
 62
     7
 10
228.5
 20
-356.00000000000023
 30
0.0
 11
198.5
 21
-356.00000000000023
 31
0.0
  0
LINE
  5
21B
  8
DATA
  6
CONTINUOUS
 62
     7
 10
156.19999999999999
 20
-213.5000000000002
 30
0.0
 11
156.0
 21
-213.3000000000001
 31
0.0
  0
LINE
  5
21C
  8
DATA
  6
CONTINUOUS
 62
     7
 10
179.5
 20
-213.5000000000002
 30
0.0
 11
180.0
 21
-213.0000000000002
 31
0.0
  0
LINE
  5
21D
  8
DATA
  6
CONTINUOUS
 62
     7
 10
275.0
 20
-304.99999999999972
 30
0.0
 11
261.5
 21
-304.99999999999972
 31
0.0
  0
LINE
  5
21E
  8
DATA
  6
CONTINUOUS
 62
     7
 10
275.0
 20
-329.0
 30
0.0
 11
261.5
 21
-329.0
 31
0.0
  0
LINE
  5
21F
  8
DATA
  6
CONTINUOUS
 62
     7
 10
275.0
 20
-329.0
 30
0.0
 11
275.0
 21
-304.99999999999972
 31
0.0
  0
LINE
  5
220
  8
DATA
  6
CONTINUOUS
 62
     7
 10
261.5
 20
-329.0
 30
0.0
 11
261.5
 21
-304.99999999999972
 31
0.0
  0
LINE
  5
221
  8
DATA
  6
CONTINUOUS
 62
     7
 10
426.0
 20
-284.9999999999996
 30
0.0
 11
426.0
 21
-348.5
 31
0.0
  0
LINE
  5
222
  8
DATA
  6
CONTINUOUS
 62
     7
 10
315.0
 20
-350.0
 30
0.0
 11
315.0
 21
-356.00000000000023
 31
0.0
  0
LINE
  5
223
  8
DATA
  6
CONTINUOUS
 62
     7
 10
285.0
 20
-350.0
 30
0.0
 11
285.0
 21
-356.00000000000023
 31
0.0
  0
LINE
  5
224
  8
DATA
  6
CONTINUOUS
 62
     7
 10
315.0
 20
-356.00000000000023
 30
0.0
 11
285.0
 21
-356.00000000000023
 31
0.0
  0
LINE
  5
225
  8
DATA
  6
CONTINUOUS
 62
     7
 10
413.0
 20
-350.0
 30
0.0
 11
413.0
 21
-356.00000000000023
 31
0.0
  0
LINE
  5
226
  8
DATA
  6
CONTINUOUS
 62
     7
 10
383.0
 20
-350.0
 30
0.0
 11
383.0
 21
-356.00000000000023
 31
0.0
  0
LINE
  5
227
  8
DATA
  6
CONTINUOUS
 62
     7
 10
413.0
 20
-356.00000000000023
 30
0.0
 11
383.0
 21
-356.00000000000023
 31
0.0
  0
LINE
  5
228
  8
DATA
  6
CONTINUOUS
 62
     7
 10
280.0
 20
-350.0
 30
0.0
 11
280.0
 21
-284.9999999999996
 31
0.0
  0
LINE
  5
229
  8
DATA
  6
CONTINUOUS
 62
     7
 10
28.0
 20
-146.9999999999998
 30
0.0
 11
29.799999999999951
 21
-146.9999999999998
 31
0.0
  0
LINE
  5
22A
  8
DATA
  6
CONTINUOUS
 62
     7
 10
28.0
 20
-96.999999999999673
 30
0.0
 11
29.799999999999951
 21
-96.999999999999673
 31
0.0
  0
LINE
  5
22B
  8
DATA
  6
CONTINUOUS
 62
     7
 10
0.0
 20
-146.9999999999998
 30
0.0
 11
0.0
 21
-96.999999999999673
 31
0.0
  0
LINE
  5
22C
  8
DATA
  6
CONTINUOUS
 62
     7
 10
28.0
 20
-146.9999999999998
 30
0.0
 11
28.0
 21
-96.999999999999673
 31
0.0
  0
LINE
  5
22D
  8
DATA
  6
CONTINUOUS
 62
     7
 10
29.800000000000072
 20
-146.9999999999998
 30
0.0
 11
29.800000000000072
 21
-96.999999999999673
 31
0.0
  0
LINE
  5
22E
  8
DATA
  6
CONTINUOUS
 62
     7
 10
34.0
 20
-146.9999999999998
 30
0.0
 11
35.799999999999962
 21
-146.9999999999998
 31
0.0
  0
LINE
  5
22F
  8
DATA
  6
CONTINUOUS
 62
     7
 10
34.0
 20
-96.999999999999673
 30
0.0
 11
35.799999999999962
 21
-96.999999999999673
 31
0.0
  0
LINE
  5
230
  8
DATA
  6
CONTINUOUS
 62
     7
 10
34.0
 20
-146.9999999999998
 30
0.0
 11
34.0
 21
-96.999999999999673
 31
0.0
  0
LINE
  5
231
  8
DATA
  6
CONTINUOUS
 62
     7
 10
35.800000000000068
 20
-146.9999999999998
 30
0.0
 11
35.800000000000068
 21
-96.999999999999673
 31
0.0
  0
LINE
  5
232
  8
DATA
  6
CONTINUOUS
 62
     7
 10
40.0
 20
-146.9999999999998
 30
0.0
 11
41.799999999999962
 21
-146.9999999999998
 31
0.0
  0
LINE
  5
233
  8
DATA
  6
CONTINUOUS
 62
     7
 10
40.0
 20
-96.999999999999673
 30
0.0
 11
41.799999999999962
 21
-96.999999999999673
 31
0.0
  0
LINE
  5
234
  8
DATA
  6
CONTINUOUS
 62
     7
 10
40.0
 20
-146.9999999999998
 30
0.0
 11
40.0
 21
-96.999999999999673
 31
0.0
  0
LINE
  5
235
  8
DATA
  6
CONTINUOUS
 62
     7
 10
41.800000000000061
 20
-146.9999999999998
 30
0.0
 11
41.800000000000061
 21
-96.999999999999673
 31
0.0
  0
LINE
  5
236
  8
DATA
  6
CONTINUOUS
 62
     7
 10
46.0
 20
-146.9999999999998
 30
0.0
 11
47.799999999999962
 21
-146.9999999999998
 31
0.0
  0
LINE
  5
237
  8
DATA
  6
CONTINUOUS
 62
     7
 10
46.0
 20
-96.999999999999673
 30
0.0
 11
47.799999999999962
 21
-96.999999999999673
 31
0.0
  0
LINE
  5
238
  8
DATA
  6
CONTINUOUS
 62
     7
 10
46.0
 20
-146.9999999999998
 30
0.0
 11
46.0
 21
-96.999999999999673
 31
0.0
  0
LINE
  5
239
  8
DATA
  6
CONTINUOUS
 62
     7
 10
47.800000000000068
 20
-146.9999999999998
 30
0.0
 11
47.800000000000068
 21
-96.999999999999673
 31
0.0
  0
LINE
  5
23A
  8
DATA
  6
CONTINUOUS
 62
     7
 10
52.0
 20
-146.9999999999998
 30
0.0
 11
53.799999999999962
 21
-146.9999999999998
 31
0.0
  0
LINE
  5
23B
  8
DATA
  6
CONTINUOUS
 62
     7
 10
52.0
 20
-96.999999999999673
 30
0.0
 11
53.799999999999962
 21
-96.999999999999673
 31
0.0
  0
LINE
  5
23C
  8
DATA
  6
CONTINUOUS
 62
     7
 10
52.0
 20
-146.9999999999998
 30
0.0
 11
52.0
 21
-96.999999999999673
 31
0.0
  0
LINE
  5
23D
  8
DATA
  6
CONTINUOUS
 62
     7
 10
53.800000000000061
 20
-146.9999999999998
 30
0.0
 11
53.800000000000061
 21
-96.999999999999673
 31
0.0
  0
LINE
  5
23E
  8
DATA
  6
CONTINUOUS
 62
     7
 10
58.0
 20
-146.9999999999998
 30
0.0
 11
59.799999999999962
 21
-146.9999999999998
 31
0.0
  0
LINE
  5
23F
  8
DATA
  6
CONTINUOUS
 62
     7
 10
58.0
 20
-96.999999999999673
 30
0.0
 11
59.799999999999962
 21
-96.999999999999673
 31
0.0
  0
LINE
  5
240
  8
DATA
  6
CONTINUOUS
 62
     7
 10
58.0
 20
-146.9999999999998
 30
0.0
 11
58.0
 21
-96.999999999999673
 31
0.0
  0
LINE
  5
241
  8
DATA
  6
CONTINUOUS
 62
     7
 10
59.800000000000068
 20
-146.9999999999998
 30
0.0
 11
59.800000000000068
 21
-96.999999999999673
 31
0.0
  0
LINE
  5
242
  8
DATA
  6
CONTINUOUS
 62
     7
 10
64.0
 20
-146.9999999999998
 30
0.0
 11
65.799999999999969
 21
-146.9999999999998
 31
0.0
  0
LINE
  5
243
  8
DATA
  6
CONTINUOUS
 62
     7
 10
64.0
 20
-96.999999999999673
 30
0.0
 11
65.799999999999969
 21
-96.999999999999673
 31
0.0
  0
LINE
  5
244
  8
DATA
  6
CONTINUOUS
 62
     7
 10
64.0
 20
-146.9999999999998
 30
0.0
 11
64.0
 21
-96.999999999999673
 31
0.0
  0
LINE
  5
245
  8
DATA
  6
CONTINUOUS
 62
     7
 10
65.800000000000068
 20
-146.9999999999998
 30
0.0
 11
65.800000000000068
 21
-96.999999999999673
 31
0.0
  0
LINE
  5
246
  8
DATA
  6
CONTINUOUS
 62
     7
 10
70.0
 20
-146.9999999999998
 30
0.0
 11
71.799999999999955
 21
-146.9999999999998
 31
0.0
  0
LINE
  5
247
  8
DATA
  6
CONTINUOUS
 62
     7
 10
70.0
 20
-96.999999999999673
 30
0.0
 11
71.799999999999955
 21
-96.999999999999673
 31
0.0
  0
LINE
  5
248
  8
DATA
  6
CONTINUOUS
 62
     7
 10
70.0
 20
-146.9999999999998
 30
0.0
 11
70.0
 21
-96.999999999999673
 31
0.0
  0
LINE
  5
249
  8
DATA
  6
CONTINUOUS
 62
     7
 10
71.800000000000054
 20
-146.9999999999998
 30
0.0
 11
71.800000000000054
 21
-96.999999999999673
 31
0.0
  0
LINE
  5
24A
  8
DATA
  6
CONTINUOUS
 62
     7
 10
76.0
 20
-146.9999999999998
 30
0.0
 11
77.799999999999955
 21
-146.9999999999998
 31
0.0
  0
LINE
  5
24B
  8
DATA
  6
CONTINUOUS
 62
     7
 10
76.0
 20
-96.999999999999673
 30
0.0
 11
77.799999999999955
 21
-96.999999999999673
 31
0.0
  0
LINE
  5
24C
  8
DATA
  6
CONTINUOUS
 62
     7
 10
76.0
 20
-146.9999999999998
 30
0.0
 11
76.0
 21
-96.999999999999673
 31
0.0
  0
LINE
  5
24D
  8
DATA
  6
CONTINUOUS
 62
     7
 10
77.800000000000068
 20
-146.9999999999998
 30
0.0
 11
77.800000000000068
 21
-96.999999999999673
 31
0.0
  0
LINE
  5
24E
  8
DATA
  6
CONTINUOUS
 62
     7
 10
163.0
 20
-146.9999999999998
 30
0.0
 11
164.7999999999999
 21
-146.9999999999998
 31
0.0
  0
LINE
  5
24F
  8
DATA
  6
CONTINUOUS
 62
     7
 10
163.0
 20
-96.999999999999673
 30
0.0
 11
164.7999999999999
 21
-96.999999999999673
 31
0.0
  0
LINE
  5
250
  8
DATA
  6
CONTINUOUS
 62
     7
 10
163.0
 20
-146.9999999999998
 30
0.0
 11
163.0
 21
-96.999999999999673
 31
0.0
  0
LINE
  5
251
  8
DATA
  6
CONTINUOUS
 62
     7
 10
164.8000000000001
 20
-146.9999999999998
 30
0.0
 11
164.8000000000001
 21
-96.999999999999673
 31
0.0
  0
LINE
  5
252
  8
DATA
  6
CONTINUOUS
 62
     7
 10
169.0
 20
-146.9999999999998
 30
0.0
 11
170.7999999999999
 21
-146.9999999999998
 31
0.0
  0
LINE
  5
253
  8
DATA
  6
CONTINUOUS
 62
     7
 10
169.0
 20
-96.999999999999673
 30
0.0
 11
170.7999999999999
 21
-96.999999999999673
 31
0.0
  0
LINE
  5
254
  8
DATA
  6
CONTINUOUS
 62
     7
 10
169.0
 20
-146.9999999999998
 30
0.0
 11
169.0
 21
-96.999999999999673
 31
0.0
  0
LINE
  5
255
  8
DATA
  6
CONTINUOUS
 62
     7
 10
170.8000000000001
 20
-146.9999999999998
 30
0.0
 11
170.8000000000001
 21
-96.999999999999673
 31
0.0
  0
LINE
  5
256
  8
DATA
  6
CONTINUOUS
 62
     7
 10
175.0
 20
-146.9999999999998
 30
0.0
 11
176.7999999999999
 21
-146.9999999999998
 31
0.0
  0
LINE
  5
257
  8
DATA
  6
CONTINUOUS
 62
     7
 10
175.0
 20
-96.999999999999673
 30
0.0
 11
176.7999999999999
 21
-96.999999999999673
 31
0.0
  0
LINE
  5
258
  8
DATA
  6
CONTINUOUS
 62
     7
 10
175.0
 20
-146.9999999999998
 30
0.0
 11
175.0
 21
-96.999999999999673
 31
0.0
  0
LINE
  5
259
  8
DATA
  6
CONTINUOUS
 62
     7
 10
176.80000000000001
 20
-146.9999999999998
 30
0.0
 11
176.80000000000001
 21
-96.999999999999673
 31
0.0
  0
LINE
  5
25A
  8
DATA
  6
CONTINUOUS
 62
     7
 10
181.0
 20
-146.9999999999998
 30
0.0
 11
182.7999999999999
 21
-146.9999999999998
 31
0.0
  0
LINE
  5
25B
  8
DATA
  6
CONTINUOUS
 62
     7
 10
181.0
 20
-96.999999999999673
 30
0.0
 11
182.7999999999999
 21
-96.999999999999673
 31
0.0
  0
LINE
  5
25C
  8
DATA
  6
CONTINUOUS
 62
     7
 10
181.0
 20
-146.9999999999998
 30
0.0
 11
181.0
 21
-96.999999999999673
 31
0.0
  0
LINE
  5
25D
  8
DATA
  6
CONTINUOUS
 62
     7
 10
182.8000000000001
 20
-146.9999999999998
 30
0.0
 11
182.8000000000001
 21
-96.999999999999673
 31
0.0
  0
LINE
  5
25E
  8
DATA
  6
CONTINUOUS
 62
     7
 10
187.0
 20
-146.9999999999998
 30
0.0
 11
188.7999999999999
 21
-146.9999999999998
 31
0.0
  0
LINE
  5
25F
  8
DATA
  6
CONTINUOUS
 62
     7
 10
187.0
 20
-96.999999999999673
 30
0.0
 11
188.7999999999999
 21
-96.999999999999673
 31
0.0
  0
LINE
  5
260
  8
DATA
  6
CONTINUOUS
 62
     7
 10
187.0
 20
-146.9999999999998
 30
0.0
 11
187.0
 21
-96.999999999999673
 31
0.0
  0
LINE
  5
261
  8
DATA
  6
CONTINUOUS
 62
     7
 10
188.80000000000001
 20
-146.9999999999998
 30
0.0
 11
188.80000000000001
 21
-96.999999999999673
 31
0.0
  0
LINE
  5
262
  8
DATA
  6
CONTINUOUS
 62
     7
 10
193.0
 20
-146.9999999999998
 30
0.0
 11
194.7999999999999
 21
-146.9999999999998
 31
0.0
  0
LINE
  5
263
  8
DATA
  6
CONTINUOUS
 62
     7
 10
193.0
 20
-96.999999999999673
 30
0.0
 11
194.7999999999999
 21
-96.999999999999673
 31
0.0
  0
LINE
  5
264
  8
DATA
  6
CONTINUOUS
 62
     7
 10
193.0
 20
-146.9999999999998
 30
0.0
 11
193.0
 21
-96.999999999999673
 31
0.0
  0
LINE
  5
265
  8
DATA
  6
CONTINUOUS
 62
     7
 10
194.80000000000001
 20
-146.9999999999998
 30
0.0
 11
194.80000000000001
 21
-96.999999999999673
 31
0.0
  0
LINE
  5
266
  8
DATA
  6
CONTINUOUS
 62
     7
 10
199.0
 20
-146.9999999999998
 30
0.0
 11
200.80000000000001
 21
-146.9999999999998
 31
0.0
  0
LINE
  5
267
  8
DATA
  6
CONTINUOUS
 62
     7
 10
199.0
 20
-96.999999999999673
 30
0.0
 11
200.80000000000001
 21
-96.999999999999673
 31
0.0
  0
LINE
  5
268
  8
DATA
  6
CONTINUOUS
 62
     7
 10
199.0
 20
-146.9999999999998
 30
0.0
 11
199.0
 21
-96.999999999999673
 31
0.0
  0
LINE
  5
269
  8
DATA
  6
CONTINUOUS
 62
     7
 10
200.8000000000001
 20
-146.9999999999998
 30
0.0
 11
200.8000000000001
 21
-96.999999999999673
 31
0.0
  0
LINE
  5
26A
  8
DATA
  6
CONTINUOUS
 62
     7
 10
205.0
 20
-146.9999999999998
 30
0.0
 11
206.80000000000001
 21
-146.9999999999998
 31
0.0
  0
LINE
  5
26B
  8
DATA
  6
CONTINUOUS
 62
     7
 10
205.0
 20
-96.999999999999673
 30
0.0
 11
206.80000000000001
 21
-96.999999999999673
 31
0.0
  0
LINE
  5
26C
  8
DATA
  6
CONTINUOUS
 62
     7
 10
205.0
 20
-146.9999999999998
 30
0.0
 11
205.0
 21
-96.999999999999673
 31
0.0
  0
LINE
  5
26D
  8
DATA
  6
CONTINUOUS
 62
     7
 10
206.80000000000001
 20
-146.9999999999998
 30
0.0
 11
206.80000000000001
 21
-96.999999999999673
 31
0.0
  0
CIRCLE
  5
26E
  8
DATA
  6
CONTINUOUS
 62
     7
 10
286.0
 20
-298.99999999999972
 30
0.0
 40
2.950000000000045
  0
LINE
  5
26F
  8
DATA
  6
CONTINUOUS
 62
     7
 10
284.73825880051521
 20
-298.99999999999972
 30
0.0
 11
287.26174119948479
 21
-298.99999999999972
 31
0.0
  0
LINE
  5
270
  8
DATA
  6
CONTINUOUS
 62
     7
 10
286.0
 20
-300.2617411994845
 30
0.0
 11
286.0
 21
-297.73825880051481
 31
0.0
  0
CIRCLE
  5
271
  8
DATA
  6
CONTINUOUS
 62
     7
 10
286.0
 20
-336.0
 30
0.0
 40
2.950000000000045
  0
LINE
  5
272
  8
DATA
  6
CONTINUOUS
 62
     7
 10
284.73825880051521
 20
-336.0
 30
0.0
 11
287.26174119948479
 21
-336.0
 31
0.0
  0
LINE
  5
273
  8
DATA
  6
CONTINUOUS
 62
     7
 10
286.0
 20
-334.73825880051498
 30
0.0
 11
286.0
 21
-337.26174119948467
 31
0.0
  0
CIRCLE
  5
274
  8
DATA
  6
CONTINUOUS
 62
     7
 10
414.0
 20
-298.99999999999972
 30
0.0
 40
2.9499999999998181
  0
LINE
  5
275
  8
DATA
  6
CONTINUOUS
 62
     7
 10
412.73825880051521
 20
-298.99999999999972
 30
0.0
 11
415.26174119948479
 21
-298.99999999999972
 31
0.0
  0
LINE
  5
276
  8
DATA
  6
CONTINUOUS
 62
     7
 10
414.0
 20
-300.2617411994845
 30
0.0
 11
414.0
 21
-297.73825880051481
 31
0.0
  0
CIRCLE
  5
277
  8
DATA
  6
CONTINUOUS
 62
     7
 10
414.0
 20
-336.0
 30
0.0
 40
2.9499999999998181
  0
LINE
  5
278
  8
DATA
  6
CONTINUOUS
 62
     7
 10
412.73825880051521
 20
-336.0
 30
0.0
 11
415.26174119948479
 21
-336.0
 31
0.0
  0
LINE
  5
279
  8
DATA
  6
CONTINUOUS
 62
     7
 10
414.0
 20
-334.73825880051498
 30
0.0
 11
414.0
 21
-337.26174119948467
 31
0.0
  0
LINE
  5
27A
  8
DATA
  6
CONTINUOUS
 62
     7
 10
235.5
 20
-296.04999999999973
 30
0.0
 11
235.0
 21
-296.04999999999973
 31
0.0
  0
LINE
  5
27B
  8
DATA
  6
CONTINUOUS
 62
     7
 10
235.5
 20
-301.94999999999982
 30
0.0
 11
235.0
 21
-301.94999999999982
 31
0.0
  0
ARC
  5
27C
  8
DATA
  6
CONTINUOUS
 62
     7
 10
231.64875000000001
 20
-298.99999999999972
 30
0.0
 40
4.8512499999999772
 50
322.54842430945399
 51
37.451575690546008
  0
LINE
  5
27D
  8
DATA
  6
CONTINUOUS
 62
     7
 10
235.5
 20
-333.0499999999999
 30
0.0
 11
235.0
 21
-333.0499999999999
 31
0.0
  0
LINE
  5
27E
  8
DATA
  6
CONTINUOUS
 62
     7
 10
235.5
 20
-338.9500000000001
 30
0.0
 11
235.0
 21
-338.9500000000001
 31
0.0
  0
ARC
  5
27F
  8
DATA
  6
CONTINUOUS
 62
     7
 10
231.64875000000001
 20
-336.0
 30
0.0
 40
4.8512499999999772
 50
322.54842430945399
 51
37.451575690546008
  0
LINE
  5
280
  8
DATA
  6
CONTINUOUS
 62
     7
 10
-0.5
 20
-296.04999999999973
 30
0.0
 11
0.0
 21
-296.04999999999973
 31
0.0
  0
LINE
  5
281
  8
DATA
  6
CONTINUOUS
 62
     7
 10
-0.5
 20
-301.94999999999982
 30
0.0
 11
0.0
 21
-301.94999999999982
 31
0.0
  0
ARC
  5
282
  8
DATA
  6
CONTINUOUS
 62
     7
 10
3.3512499999999359
 20
-298.99999999999972
 30
0.0
 40
4.8512499999999772
 50
142.54842430945399
 51
217.45157569054601
  0
LINE
  5
283
  8
DATA
  6
CONTINUOUS
 62
     7
 10
-0.5
 20
-333.0499999999999
 30
0.0
 11
0.0
 21
-333.0499999999999
 31
0.0
  0
LINE
  5
284
  8
DATA
  6
CONTINUOUS
 62
     7
 10
-0.5
 20
-338.9500000000001
 30
0.0
 11
0.0
 21
-338.9500000000001
 31
0.0
  0
ARC
  5
285
  8
DATA
  6
CONTINUOUS
 62
     7
 10
3.3512499999999359
 20
-336.0
 30
0.0
 40
4.8512499999999772
 50
142.54842430945399
 51
217.45157569054601
  0
LINE
  5
286
  8
DATA
  6
CONTINUOUS
 62
     7
 10
235.5
 20
-186.05000000000001
 30
0.0
 11
235.0
 21
-186.05000000000001
 31
0.0
  0
LINE
  5
287
  8
DATA
  6
CONTINUOUS
 62
     7
 10
235.5
 20
-191.94999999999999
 30
0.0
 11
235.0
 21
-191.94999999999999
 31
0.0
  0
ARC
  5
288
  8
DATA
  6
CONTINUOUS
 62
     7
 10
231.64875000000001
 20
-189.0
 30
0.0
 40
4.8512499999999772
 50
322.54842430945399
 51
37.451575690545489
  0
LINE
  5
289
  8
DATA
  6
CONTINUOUS
 62
     7
 10
235.5
 20
-58.049999999999571
 30
0.0
 11
235.0
 21
-58.049999999999571
 31
0.0
  0
LINE
  5
28A
  8
DATA
  6
CONTINUOUS
 62
     7
 10
235.5
 20
-63.949999999999541
 30
0.0
 11
235.0
 21
-63.949999999999541
 31
0.0
  0
ARC
  5
28B
  8
DATA
  6
CONTINUOUS
 62
     7
 10
231.64875000000001
 20
-60.999999999999488
 30
0.0
 40
4.8512499999999772
 50
322.54842430945399
 51
37.451575690544928
  0
LINE
  5
28C
  8
DATA
  6
CONTINUOUS
 62
     7
 10
-0.5
 20
-186.05000000000001
 30
0.0
 11
0.0
 21
-186.05000000000001
 31
0.0
  0
LINE
  5
28D
  8
DATA
  6
CONTINUOUS
 62
     7
 10
-0.5
 20
-191.94999999999999
 30
0.0
 11
0.0
 21
-191.94999999999999
 31
0.0
  0
ARC
  5
28E
  8
DATA
  6
CONTINUOUS
 62
     7
 10
3.3512499999999359
 20
-189.0
 30
0.0
 40
4.8512499999999434
 50
142.5484243094545
 51
217.45157569054601
  0
LINE
  5
28F
  8
DATA
  6
CONTINUOUS
 62
     7
 10
-0.5
 20
-58.049999999999571
 30
0.0
 11
0.0
 21
-58.049999999999571
 31
0.0
  0
LINE
  5
290
  8
DATA
  6
CONTINUOUS
 62
     7
 10
-0.5
 20
-63.949999999999541
 30
0.0
 11
0.0
 21
-63.949999999999541
 31
0.0
  0
ARC
  5
291
  8
DATA
  6
CONTINUOUS
 62
     7
 10
3.3512499999999359
 20
-60.999999999999488
 30
0.0
 40
4.851249999999907
 50
142.5484243094551
 51
217.45157569054601
  0
ARC
  5
292
  8
DATA
  6
CONTINUOUS
 62
     7
 10
424.5
 20
-348.5
 30
0.0
 40
1.5
 50
270.0
 51
0.0
  0
ARC
  5
293
  8
DATA
  6
CONTINUOUS
 62
     7
 10
2.0
 20
2.0
 30
0.0
 40
2.0
 50
180.0
 51
270.0
  0
LINE
  5
294
  8
DATA
  6
CONTINUOUS
 62
     7
 10
0.0
 20
63.000000000000291
 30
0.0
 11
0.0
 21
2.0
 31
0.0
  0
ARC
  5
295
  8
DATA
  6
CONTINUOUS
 62
     7
 10
2.0000000000002269
 20
63.000000000000107
 30
0.0
 40
2.0000000000002269
 50
90.000000000006537
 51
179.99999999999511
  0
LINE
  5
296
  8
DATA
  6
CONTINUOUS
 62
     7
 10
233.0
 20
65.000000000000341
 30
0.0
 11
2.0
 21
65.000000000000341
 31
0.0
  0
ARC
  5
297
  8
DATA
  6
CONTINUOUS
 62
     7
 10
233.0
 20
63.000000000000341
 30
0.0
 40
2.0
 50
0.0
 51
90.0
  0
LINE
  5
298
  8
DATA
  6
CONTINUOUS
 62
     7
 10
235.0
 20
2.0
 30
0.0
 11
235.0
 21
63.000000000000341
 31
0.0
  0
ARC
  5
299
  8
DATA
  6
CONTINUOUS
 62
     7
 10
233.0
 20
2.0
 30
0.0
 40
2.0
 50
270.0
 51
0.0
  0
LINE
  5
29A
  8
DATA
  6
CONTINUOUS
 62
     7
 10
2.0
 20
0.0
 30
0.0
 11
233.0
 21
0.0
 31
0.0
  0
LINE
  5
29B
  8
DATA
  6
CONTINUOUS
 62
     7
 10
6.5
 20
65.000000000000341
 30
0.0
 11
6.5
 21
71.000000000000412
 31
0.0
  0
LINE
  5
29C
  8
DATA
  6
CONTINUOUS
 62
     7
 10
36.5
 20
65.000000000000341
 30
0.0
 11
36.5
 21
71.000000000000412
 31
0.0
  0
LINE
  5
29D
  8
DATA
  6
CONTINUOUS
 62
     7
 10
6.5
 20
71.000000000000412
 30
0.0
 11
36.5
 21
71.000000000000412
 31
0.0
  0
LINE
  5
29E
  8
DATA
  6
CONTINUOUS
 62
     7
 10
228.5
 20
65.000000000000341
 30
0.0
 11
228.5
 21
71.000000000000412
 31
0.0
  0
LINE
  5
29F
  8
DATA
  6
CONTINUOUS
 62
     7
 10
198.5
 20
65.000000000000341
 30
0.0
 11
198.5
 21
71.000000000000412
 31
0.0
  0
LINE
  5
2A0
  8
DATA
  6
CONTINUOUS
 62
     7
 10
228.5
 20
71.000000000000412
 30
0.0
 11
198.5
 21
71.000000000000412
 31
0.0
  0
LINE
  5
2A1
  8
DATA
  6
CONTINUOUS
 62
     7
 10
235.5
 20
11.05000000000001
 30
0.0
 11
235.0
 21
11.05000000000001
 31
0.0
  0
LINE
  5
2A2
  8
DATA
  6
CONTINUOUS
 62
     7
 10
235.5
 20
16.950000000000038
 30
0.0
 11
235.0
 21
16.950000000000038
 31
0.0
  0
ARC
  5
2A3
  8
DATA
  6
CONTINUOUS
 62
     7
 10
231.64875000000001
 20
14.00000000000005
 30
0.0
 40
4.8512499999999772
 50
322.54842430945399
 51
37.451575690545489
  0
LINE
  5
2A4
  8
DATA
  6
CONTINUOUS
 62
     7
 10
235.5
 20
48.050000000000239
 30
0.0
 11
235.0
 21
48.050000000000239
 31
0.0
  0
LINE
  5
2A5
  8
DATA
  6
CONTINUOUS
 62
     7
 10
235.5
 20
53.950000000000273
 30
0.0
 11
235.0
 21
53.950000000000273
 31
0.0
  0
ARC
  5
2A6
  8
DATA
  6
CONTINUOUS
 62
     7
 10
231.64875000000001
 20
51.00000000000022
 30
0.0
 40
4.8512499999999434
 50
322.5484243094545
 51
37.451575690546008
  0
LINE
  5
2A7
  8
DATA
  6
CONTINUOUS
 62
     7
 10
-0.5
 20
11.05000000000001
 30
0.0
 11
0.0
 21
11.05000000000001
 31
0.0
  0
LINE
  5
2A8
  8
DATA
  6
CONTINUOUS
 62
     7
 10
-0.5
 20
16.950000000000038
 30
0.0
 11
0.0
 21
16.950000000000038
 31
0.0
  0
ARC
  5
2A9
  8
DATA
  6
CONTINUOUS
 62
     7
 10
3.3512499999999359
 20
14.00000000000005
 30
0.0
 40
4.8512499999999434
 50
142.5484243094545
 51
217.45157569054601
  0
LINE
  5
2AA
  8
DATA
  6
CONTINUOUS
 62
     7
 10
-0.5
 20
48.050000000000239
 30
0.0
 11
0.0
 21
48.050000000000239
 31
0.0
  0
LINE
  5
2AB
  8
DATA
  6
CONTINUOUS
 62
     7
 10
-0.5
 20
53.950000000000273
 30
0.0
 11
0.0
 21
53.950000000000273
 31
0.0
  0
ARC
  5
2AC
  8
DATA
  6
CONTINUOUS
 62
     7
 10
3.3512499999999359
 20
51.00000000000022
 30
0.0
 40
4.8512499999999772
 50
142.54842430945399
 51
217.45157569054541
  0
LINE
  5
2AD
  8
DATA
  6
CONTINUOUS
 62
     7
 10
3.8999999999999759
 20
1.9000000000000341
 30
0.0
 11
231.09999999999999
 21
1.9000000000000341
 31
0.0
  0
LINE
  5
2AE
  8
DATA
  6
CONTINUOUS
 62
     7
 10
1.899999999999977
 20
3.9000000000000332
 30
0.0
 11
1.899999999999977
 21
64.997498435544173
 31
0.0
  0
LINE
  5
2AF
  8
DATA
  6
CONTINUOUS
 62
     7
 10
233.09999999999999
 20
3.9000000000000332
 30
0.0
 11
233.09999999999999
 21
64.997498435544173
 31
0.0
  0
ARC
  5
2B0
  8
DATA
  6
CONTINUOUS
 62
     7
 10
3.8999999999999759
 20
3.9000000000000332
 30
0.0
 40
2.0
 50
180.0
 51
270.0
  0
ARC
  5
2B1
  8
DATA
  6
CONTINUOUS
 62
     7
 10
231.09999999999999
 20
3.9000000000000332
 30
0.0
 40
2.0
 50
270.0
 51
0.0
  0
LINE
  5
2B2
  8
DATA
  6
CONTINUOUS
 62
     7
 10
216.09999999999999
 20
22.400000007450672
 30
0.0
 11
216.09999999999999
 21
41.39999999254961
 31
0.0
  0
LINE
  5
2B3
  8
DATA
  6
CONTINUOUS
 62
     7
 10
201.09999999999999
 20
22.400000007450672
 30
0.0
 11
201.09999999999999
 21
41.39999999254961
 31
0.0
  0
LINE
  5
2B4
  8
DATA
  6
CONTINUOUS
 62
     7
 10
215.59999999254941
 20
21.900000000000091
 30
0.0
 11
201.6000000074506
 21
21.900000000000091
 31
0.0
  0
LINE
  5
2B5
  8
DATA
  6
CONTINUOUS
 62
     7
 10
215.59999999254941
 20
41.900000000000212
 30
0.0
 11
201.6000000074506
 21
41.900000000000212
 31
0.0
  0
LINE
  5
2B6
  8
DATA
  6
CONTINUOUS
 62
     7
 10
203.59999999999999
 20
24.900000007450672
 30
0.0
 11
203.59999999999999
 21
38.899999992549567
 31
0.0
  0
LINE
  5
2B7
  8
DATA
  6
CONTINUOUS
 62
     7
 10
213.59999999999999
 20
24.900000007450672
 30
0.0
 11
213.59999999999999
 21
38.899999992549567
 31
0.0
  0
LINE
  5
2B8
  8
DATA
  6
CONTINUOUS
 62
     7
 10
213.09999999254941
 20
39.400000000000148
 30
0.0
 11
204.1000000074506
 21
39.400000000000148
 31
0.0
  0
LINE
  5
2B9
  8
DATA
  6
CONTINUOUS
 62
     7
 10
213.09999999254941
 20
24.400000000000091
 30
0.0
 11
204.1000000074506
 21
24.400000000000091
 31
0.0
  0
ARC
  5
2BA
  8
DATA
  6
CONTINUOUS
 62
     7
 10
201.6000000074506
 20
41.39999999254961
 30
0.0
 40
0.5000000074505806
 50
90.0
 51
180.0
  0
ARC
  5
2BB
  8
DATA
  6
CONTINUOUS
 62
     7
 10
215.59999999254941
 20
41.39999999254961
 30
0.0
 40
0.5000000074505806
 50
0.0
 51
90.0
  0
ARC
  5
2BC
  8
DATA
  6
CONTINUOUS
 62
     7
 10
201.6000000074506
 20
22.400000007450672
 30
0.0
 40
0.5000000074505806
 50
180.0
 51
270.0
  0
ARC
  5
2BD
  8
DATA
  6
CONTINUOUS
 62
     7
 10
215.59999999254941
 20
22.400000007450672
 30
0.0
 40
0.5000000074505806
 50
270.0
 51
0.0
  0
ARC
  5
2BE
  8
DATA
  6
CONTINUOUS
 62
     7
 10
204.1000000074506
 20
24.900000007450672
 30
0.0
 40
0.5000000074505806
 50
180.0
 51
270.0
  0
ARC
  5
2BF
  8
DATA
  6
CONTINUOUS
 62
     7
 10
213.09999999254941
 20
24.900000007450672
 30
0.0
 40
0.5000000074505806
 50
270.0
 51
0.0
  0
ARC
  5
2C0
  8
DATA
  6
CONTINUOUS
 62
     7
 10
213.09999999254941
 20
38.899999992549567
 30
0.0
 40
0.5000000074505806
 50
0.0
 51
90.0
  0
ARC
  5
2C1
  8
DATA
  6
CONTINUOUS
 62
     7
 10
204.1000000074506
 20
38.899999992549567
 30
0.0
 40
0.5000000074505806
 50
90.0
 51
180.0
  0
ARC
  5
2C2
  8
DATA
  6
CONTINUOUS
 62
     7
 10
208.59999999999999
 20
43.063924149429972
 30
0.0
 40
16.02500000000013
 50
251.8194461583555
 51
288.1805538416445
  0
LINE
  5
2C3
  8
DATA
  6
CONTINUOUS
 62
     7
 10
208.59999999999999
 20
28.29513792201266
 30
0.0
 11
208.59999999999999
 21
30.79513792201266
 31
0.0
  0
CIRCLE
  5
2C4
  8
DATA
  6
CONTINUOUS
 62
     7
 10
208.59999999999999
 20
36.829555187332737
 30
0.0
 40
1.0879130396406129
  0
LINE
  5
2C5
  8
DATA
  6
CONTINUOUS
 62
     7
 10
190.09999999999999
 20
17.900000000000091
 30
0.0
 11
190.09999999999999
 21
46.900000000000212
 31
0.0
  0
LINE
  5
2C6
  8
DATA
  6
CONTINUOUS
 62
     7
 10
161.09999999999999
 20
17.900000000000091
 30
0.0
 11
161.09999999999999
 21
46.900000000000212
 31
0.0
  0
LINE
  5
2C7
  8
DATA
  6
CONTINUOUS
 62
     7
 10
189.09999999999999
 20
16.900000000000091
 30
0.0
 11
162.09999999999999
 21
16.900000000000091
 31
0.0
  0
LINE
  5
2C8
  8
DATA
  6
CONTINUOUS
 62
     7
 10
189.09999999999999
 20
47.900000000000247
 30
0.0
 11
162.09999999999999
 21
47.900000000000247
 31
0.0
  0
ARC
  5
2C9
  8
DATA
  6
CONTINUOUS
 62
     7
 10
162.09999999999999
 20
46.900000000000212
 30
0.0
 40
1.000000000000056
 50
90.0
 51
180.0
  0
ARC
  5
2CA
  8
DATA
  6
CONTINUOUS
 62
     7
 10
189.09999999999999
 20
46.900000000000212
 30
0.0
 40
1.0
 50
0.0
 51
90.0
  0
ARC
  5
2CB
  8
DATA
  6
CONTINUOUS
 62
     7
 10
162.09999999999999
 20
17.900000000000091
 30
0.0
 40
1.0
 50
180.0
 51
270.0
  0
ARC
  5
2CC
  8
DATA
  6
CONTINUOUS
 62
     7
 10
189.09999999999999
 20
17.900000000000091
 30
0.0
 40
1.0
 50
270.0
 51
0.0
  0
LINE
  5
2CD
  8
DATA
  6
CONTINUOUS
 62
     7
 10
187.09999999999999
 20
34.900000000000148
 30
0.0
 11
180.09999999999999
 21
34.900000000000148
 31
0.0
  0
LINE
  5
2CE
  8
DATA
  6
CONTINUOUS
 62
     7
 10
171.09999999999999
 20
34.900000000000148
 30
0.0
 11
164.09999999999999
 21
34.900000000000148
 31
0.0
  0
LINE
  5
2CF
  8
DATA
  6
CONTINUOUS
 62
     7
 10
163.09999999999999
 20
33.900000000000148
 30
0.0
 11
163.09999999999999
 21
22.900000000000091
 31
0.0
  0
LINE
  5
2D0
  8
DATA
  6
CONTINUOUS
 62
     7
 10
188.09999999999999
 20
33.900000000000148
 30
0.0
 11
188.09999999999999
 21
22.900000000000091
 31
0.0
  0
LINE
  5
2D1
  8
DATA
  6
CONTINUOUS
 62
     7
 10
188.09999999999999
 20
45.900000000000212
 30
0.0
 11
163.09999999999999
 21
45.900000000000212
 31
0.0
  0
LINE
  5
2D2
  8
DATA
  6
CONTINUOUS
 62
     7
 10
184.09999999999999
 20
18.900000000000031
 30
0.0
 11
167.09999999999999
 21
18.900000000000031
 31
0.0
  0
LINE
  5
2D3
  8
DATA
  6
CONTINUOUS
 62
     7
 10
167.09999999999999
 20
18.900000000000031
 30
0.0
 11
163.09999999999999
 21
22.900000000000091
 31
0.0
  0
LINE
  5
2D4
  8
DATA
  6
CONTINUOUS
 62
     7
 10
184.09999999999999
 20
18.900000000000031
 30
0.0
 11
188.09999999999999
 21
22.900000000000091
 31
0.0
  0
LINE
  5
2D5
  8
DATA
  6
CONTINUOUS
 62
     7
 10
163.09999999999999
 20
36.900000000000148
 30
0.0
 11
171.09999999999999
 21
36.900000000000148
 31
0.0
  0
LINE
  5
2D6
  8
DATA
  6
CONTINUOUS
 62
     7
 10
180.09999999999999
 20
36.900000000000148
 30
0.0
 11
188.09999999999999
 21
36.900000000000148
 31
0.0
  0
ARC
  5
2D7
  8
DATA
  6
CONTINUOUS
 62
     7
 10
164.09999999999999
 20
33.900000000000148
 30
0.0
 40
1.0
 50
90.0
 51
180.0
  0
ARC
  5
2D8
  8
DATA
  6
CONTINUOUS
 62
     7
 10
187.09999999999999
 20
33.900000000000148
 30
0.0
 40
1.0
 50
0.0
 51
90.0
  0
LINE
  5
2D9
  8
DATA
  6
CONTINUOUS
 62
     7
 10
163.09999999999999
 20
36.900000000000148
 30
0.0
 11
163.09999999999999
 21
45.900000000000212
 31
0.0
  0
LINE
  5
2DA
  8
DATA
  6
CONTINUOUS
 62
     7
 10
188.09999999999999
 20
45.900000000000212
 30
0.0
 11
188.09999999999999
 21
36.900000000000148
 31
0.0
  0
LINE
  5
2DB
  8
DATA
  6
CONTINUOUS
 62
     7
 10
180.09999999999999
 20
36.900000000000148
 30
0.0
 11
180.09999999999999
 21
34.900000000000148
 31
0.0
  0
LINE
  5
2DC
  8
DATA
  6
CONTINUOUS
 62
     7
 10
171.09999999999999
 20
34.900000000000148
 30
0.0
 11
171.09999999999999
 21
36.900000000000148
 31
0.0
  0
POLYLINE
  5
2DD
  8
DATA
  6
CONTINUOUS
 62
     7
 66
     1
 10
0.0
 20
0.0
 30
0.0
 70
     1
  0
VERTEX
  5
496
  8
DATA
  6
CONTINUOUS
 62
     7
 10
174.59999999999999
 20
26.900000000000091
 30
0.0
  0
VERTEX
  5
497
  8
DATA
  6
CONTINUOUS
 62
     7
 10
176.59999999999999
 20
26.900000000000091
 30
0.0
  0
VERTEX
  5
498
  8
DATA
  6
CONTINUOUS
 62
     7
 10
176.59999999999999
 20
22.900000000000091
 30
0.0
  0
VERTEX
  5
499
  8
DATA
  6
CONTINUOUS
 62
     7
 10
174.59999999999999
 20
22.900000000000091
 30
0.0
  0
SEQEND
  5
49A
  8
DATA
  6
CONTINUOUS
 62
     7
  0
POLYLINE
  5
2E4
  8
DATA
  6
CONTINUOUS
 62
     7
 66
     1
 10
0.0
 20
0.0
 30
0.0
 70
     1
  0
VERTEX
  5
49B
  8
DATA
  6
CONTINUOUS
 62
     7
 10
167.59999999999999
 20
31.900000000000091
 30
0.0
  0
VERTEX
  5
49C
  8
DATA
  6
CONTINUOUS
 62
     7
 10
169.59999999999999
 20
31.900000000000091
 30
0.0
  0
VERTEX
  5
49D
  8
DATA
  6
CONTINUOUS
 62
     7
 10
169.59999999999999
 20
27.900000000000091
 30
0.0
  0
VERTEX
  5
49E
  8
DATA
  6
CONTINUOUS
 62
     7
 10
167.59999999999999
 20
27.900000000000091
 30
0.0
  0
SEQEND
  5
49F
  8
DATA
  6
CONTINUOUS
 62
     7
  0
POLYLINE
  5
2EB
  8
DATA
  6
CONTINUOUS
 62
     7
 66
     1
 10
0.0
 20
0.0
 30
0.0
 70
     1
  0
VERTEX
  5
4A0
  8
DATA
  6
CONTINUOUS
 62
     7
 10
181.59999999999999
 20
31.900000000000091
 30
0.0
  0
VERTEX
  5
4A1
  8
DATA
  6
CONTINUOUS
 62
     7
 10
183.59999999999999
 20
31.900000000000091
 30
0.0
  0
VERTEX
  5
4A2
  8
DATA
  6
CONTINUOUS
 62
     7
 10
183.59999999999999
 20
27.900000000000091
 30
0.0
  0
VERTEX
  5
4A3
  8
DATA
  6
CONTINUOUS
 62
     7
 10
181.59999999999999
 20
27.900000000000091
 30
0.0
  0
SEQEND
  5
4A4
  8
DATA
  6
CONTINUOUS
 62
     7
  0
CIRCLE
  5
2F2
  8
DATA
  6
CONTINUOUS
 62
     7
 10
157.59999999999999
 20
32.400000000000091
 30
0.0
 40
2.9499999999999309
  0
LINE
  5
2F3
  8
DATA
  6
CONTINUOUS
 62
     7
 10
156.33825880051521
 20
32.400000000000091
 30
0.0
 11
158.8617411994849
 21
32.400000000000091
 31
0.0
  0
LINE
  5
2F4
  8
DATA
  6
CONTINUOUS
 62
     7
 10
157.59999999999999
 20
31.138258800515249
 30
0.0
 11
157.59999999999999
 21
33.661741199484943
 31
0.0
  0
CIRCLE
  5
2F5
  8
DATA
  6
CONTINUOUS
 62
     7
 10
193.59999999999999
 20
32.400000000000091
 30
0.0
 40
2.950000000000045
  0
LINE
  5
2F6
  8
DATA
  6
CONTINUOUS
 62
     7
 10
194.8617411994849
 20
32.400000000000091
 30
0.0
 11
192.33825880051521
 21
32.400000000000091
 31
0.0
  0
LINE
  5
2F7
  8
DATA
  6
CONTINUOUS
 62
     7
 10
193.59999999999999
 20
31.138258800515249
 30
0.0
 11
193.59999999999999
 21
33.661741199484943
 31
0.0
  0
LINE
  5
2F8
  8
DATA
  6
CONTINUOUS
 62
     7
 10
140.09999999999999
 20
40.28000000000015
 30
0.0
 11
140.09999999999999
 21
26.400000000000091
 31
0.0
  0
LINE
  5
2F9
  8
DATA
  6
CONTINUOUS
 62
     7
 10
146.09999999999999
 20
40.28000000000015
 30
0.0
 11
146.09999999999999
 21
26.400000000000091
 31
0.0
  0
LINE
  5
2FA
  8
DATA
  6
CONTINUOUS
 62
     7
 10
146.09999999999999
 20
26.400000000000091
 30
0.0
 11
140.09999999999999
 21
26.400000000000091
 31
0.0
  0
LINE
  5
2FB
  8
DATA
  6
CONTINUOUS
 62
     7
 10
146.09999999999999
 20
40.2800000000002
 30
0.0
 11
140.09999999999999
 21
40.2800000000002
 31
0.0
  0
CIRCLE
  5
2FC
  8
DATA
  6
CONTINUOUS
 62
     7
 10
143.09999999999999
 20
16.090000000000089
 30
0.0
 40
2.9499999999999309
  0
LINE
  5
2FD
  8
DATA
  6
CONTINUOUS
 62
     7
 10
141.83825880051521
 20
16.090000000000089
 30
0.0
 11
144.3617411994849
 21
16.090000000000089
 31
0.0
  0
LINE
  5
2FE
  8
DATA
  6
CONTINUOUS
 62
     7
 10
143.09999999999999
 20
14.82825880051519
 30
0.0
 11
143.09999999999999
 21
17.35174119948493
 31
0.0
  0
CIRCLE
  5
2FF
  8
DATA
  6
CONTINUOUS
 62
     7
 10
143.09999999999999
 20
50.590000000000252
 30
0.0
 40
2.9499999999999309
  0
LINE
  5
300
  8
DATA
  6
CONTINUOUS
 62
     7
 10
141.83825880051521
 20
50.590000000000252
 30
0.0
 11
144.3617411994849
 21
50.590000000000252
 31
0.0
  0
LINE
  5
301
  8
DATA
  6
CONTINUOUS
 62
     7
 10
143.09999999999999
 20
51.851741199485112
 30
0.0
 11
143.09999999999999
 21
49.328258800515407
 31
0.0
  0
TEXT
  5
302
  8
DATA
 62
     7
 10
144.9581047616885
 20
31.13018728340748
 30
0.0
 40
1.876425
  1
115
 50
180.0
 11
144.9581047616885
 21
29.253762283407479
 31
0.0
 73
     3
  0
LINE
  5
303
  8
DATA
  6
CONTINUOUS
 62
     7
 10
146.09999999999999
 20
33.400000000000148
 30
0.0
 11
140.09999999999999
 21
33.400000000000148
 31
0.0
  0
LINE
  5
304
  8
DATA
  6
CONTINUOUS
 62
     7
 10
146.09999999999999
 20
35.200000000000102
 30
0.0
 11
140.09999999999999
 21
35.200000000000102
 31
0.0
  0
LINE
  5
305
  8
DATA
  6
CONTINUOUS
 62
     7
 10
146.09999999999999
 20
37.100000000000193
 30
0.0
 11
140.09999999999999
 21
37.100000000000193
 31
0.0
  0
LINE
  5
306
  8
DATA
  6
CONTINUOUS
 62
     7
 10
140.09999999999999
 20
39.057843826181511
 30
0.0
 11
146.09999999999999
 21
39.057843826181511
 31
0.0
  0
LINE
  5
307
  8
DATA
  6
CONTINUOUS
 62
     7
 10
115.09999999999999
 20
50.900000000000247
 30
0.0
 11
115.09999999999999
 21
14.900000000000031
 31
0.0
  0
LINE
  5
308
  8
DATA
  6
CONTINUOUS
 62
     7
 10
89.100000000000009
 20
50.900000000000247
 30
0.0
 11
89.100000000000009
 21
14.900000000000031
 31
0.0
  0
LINE
  5
309
  8
DATA
  6
CONTINUOUS
 62
     7
 10
73.100000000000023
 20
50.900000000000247
 30
0.0
 11
73.100000000000023
 21
14.900000000000031
 31
0.0
  0
LINE
  5
30A
  8
DATA
  6
CONTINUOUS
 62
     7
 10
51.100000000000023
 20
50.900000000000247
 30
0.0
 11
51.100000000000023
 21
14.900000000000031
 31
0.0
  0
LINE
  5
30B
  8
DATA
  6
CONTINUOUS
 62
     7
 10
115.09999999999999
 20
14.900000000000031
 30
0.0
 11
106.89999999999991
 21
14.900000000000031
 31
0.0
  0
LINE
  5
30C
  8
DATA
  6
CONTINUOUS
 62
     7
 10
97.300000000000054
 20
14.900000000000031
 30
0.0
 11
89.100000000000009
 21
14.900000000000031
 31
0.0
  0
LINE
  5
30D
  8
DATA
  6
CONTINUOUS
 62
     7
 10
73.100000000000023
 20
14.900000000000031
 30
0.0
 11
51.100000000000023
 21
14.900000000000031
 31
0.0
  0
LINE
  5
30E
  8
DATA
  6
CONTINUOUS
 62
     7
 10
115.09999999999999
 20
50.900000000000247
 30
0.0
 11
89.100000000000009
 21
50.900000000000247
 31
0.0
  0
LINE
  5
30F
  8
DATA
  6
CONTINUOUS
 62
     7
 10
73.100000000000023
 20
50.900000000000247
 30
0.0
 11
51.100000000000023
 21
50.900000000000247
 31
0.0
  0
CIRCLE
  5
310
  8
DATA
  6
CONTINUOUS
 62
     7
 10
62.100000000000009
 20
46.400000000000198
 30
0.0
 40
2.8999999999999768
  0
CIRCLE
  5
311
  8
DATA
  6
CONTINUOUS
 62
     7
 10
62.100000000000009
 20
19.400000000000031
 30
0.0
 40
2.8999999999999768
  0
ARC
  5
312
  8
DATA
  6
CONTINUOUS
 62
     7
 10
62.10000000000047
 20
32.900000000000723
 30
0.0
 40
8.0000000000008296
 50
233.03573091300191
 51
216.9642690869992
  0
LINE
  5
313
  8
DATA
  6
CONTINUOUS
 62
     7
 10
60.350000000000009
 20
46.400000000000198
 30
0.0
 11
63.850000000000009
 21
46.400000000000198
 31
0.0
  0
LINE
  5
314
  8
DATA
  6
CONTINUOUS
 62
     7
 10
62.100000000000009
 20
44.650000000000212
 30
0.0
 11
62.100000000000009
 21
48.150000000000261
 31
0.0
  0
LINE
  5
315
  8
DATA
  6
CONTINUOUS
 62
     7
 10
60.350000000000009
 20
19.400000000000031
 30
0.0
 11
63.850000000000009
 21
19.400000000000031
 31
0.0
  0
LINE
  5
316
  8
DATA
  6
CONTINUOUS
 62
     7
 10
62.100000000000009
 20
21.150000000000091
 30
0.0
 11
62.100000000000009
 21
17.650000000000091
 31
0.0
  0
CIRCLE
  5
317
  8
DATA
  6
CONTINUOUS
 62
     7
 10
58.100000000000023
 20
32.900000000000148
 30
0.0
 40
1.125
  0
CIRCLE
  5
318
  8
DATA
  6
CONTINUOUS
 62
     7
 10
66.100000000000023
 20
32.900000000000148
 30
0.0
 40
1.125
  0
CIRCLE
  5
319
  8
DATA
  6
CONTINUOUS
 62
     7
 10
62.100000000000009
 20
36.900000000000148
 30
0.0
 40
1.125
  0
ARC
  5
31A
  8
DATA
  6
CONTINUOUS
 62
     7
 10
56.58521783919366
 20
27.385217839193778
 30
0.0
 40
1.125000000000026
 50
141.24455479640909
 51
308.75544520359273
  0
CIRCLE
  5
31B
  8
DATA
  6
CONTINUOUS
 62
     7
 10
93.600000000000023
 20
46.400000000000198
 30
0.0
 40
2.8999999999999768
  0
LINE
  5
31C
  8
DATA
  6
CONTINUOUS
 62
     7
 10
91.850000000000023
 20
46.400000000000198
 30
0.0
 11
95.350000000000009
 21
46.400000000000198
 31
0.0
  0
LINE
  5
31D
  8
DATA
  6
CONTINUOUS
 62
     7
 10
93.600000000000023
 20
44.650000000000212
 30
0.0
 11
93.600000000000023
 21
48.150000000000261
 31
0.0
  0
CIRCLE
  5
31E
  8
DATA
  6
CONTINUOUS
 62
     7
 10
110.59999999999999
 20
19.400000000000031
 30
0.0
 40
2.8999999999999768
  0
LINE
  5
31F
  8
DATA
  6
CONTINUOUS
 62
     7
 10
108.84999999999999
 20
19.400000000000031
 30
0.0
 11
112.34999999999999
 21
19.400000000000031
 31
0.0
  0
LINE
  5
320
  8
DATA
  6
CONTINUOUS
 62
     7
 10
110.59999999999999
 20
17.650000000000091
 30
0.0
 11
110.59999999999999
 21
21.150000000000091
 31
0.0
  0
ARC
  5
321
  8
DATA
  6
CONTINUOUS
 62
     7
 10
102.10000000000019
 20
32.900000000002251
 30
0.0
 40
9.7500000000021565
 50
286.0766498315997
 51
253.92335016839681
  0
CIRCLE
  5
322
  8
DATA
  6
CONTINUOUS
 62
     7
 10
102.09999999999999
 20
32.900000000000148
 30
0.0
 40
7.5
  0
LINE
  5
323
  8
DATA
  6
CONTINUOUS
 62
     7
 10
97.300000000000054
 20
14.63413673119083
 30
0.0
 11
97.300000000000054
 21
18.9189002270599
 31
0.0
  0
LINE
  5
324
  8
DATA
  6
CONTINUOUS
 62
     7
 10
106.89999999999991
 20
18.9189002270599
 30
0.0
 11
106.89999999999991
 21
14.63413673119083
 31
0.0
  0
LINE
  5
325
  8
DATA
  6
CONTINUOUS
 62
     7
 10
106.89999999999991
 20
18.9189002270599
 30
0.0
 11
104.7999999999999
 21
18.9189002270599
 31
0.0
  0
LINE
  5
326
  8
DATA
  6
CONTINUOUS
 62
     7
 10
99.399999999999963
 20
18.9189002270599
 30
0.0
 11
97.300000000000054
 21
18.9189002270599
 31
0.0
  0
LINE
  5
327
  8
DATA
  6
CONTINUOUS
 62
     7
 10
99.399999999999963
 20
23.53130211822377
 30
0.0
 11
99.399999999999963
 21
18.9189002270599
 31
0.0
  0
LINE
  5
328
  8
DATA
  6
CONTINUOUS
 62
     7
 10
104.7999999999999
 20
23.53130211822377
 30
0.0
 11
104.7999999999999
 21
18.9189002270599
 31
0.0
  0
ARC
  5
329
  8
DATA
  6
CONTINUOUS
 62
     7
 10
102.09999999999999
 20
25.88551189427756
 30
0.0
 40
12.23247493602681
 50
246.8962008928747
 51
293.10379910712538
  0
LINE
  5
32A
  8
DATA
  6
CONTINUOUS
 62
     7
 10
99.399999999999963
 20
20.06646581522153
 30
0.0
 11
104.7999999999999
 21
20.06646581522153
 31
0.0
  0
CIRCLE
  5
32B
  8
DATA
  6
CONTINUOUS
 62
     7
 10
102.10000000000019
 20
32.900000000002251
 30
0.0
 40
0.5
  0
CIRCLE
  5
32C
  8
DATA
  6
CONTINUOUS
 62
     7
 10
98.267299507543044
 20
31.063452441370028
 30
0.0
 40
0.5
  0
CIRCLE
  5
32D
  8
DATA
  6
CONTINUOUS
 62
     7
 10
105.9327004924572
 20
31.06345244137049
 30
0.0
 40
0.5
  0
CIRCLE
  5
32E
  8
DATA
  6
CONTINUOUS
 62
     7
 10
98.111794373993817
 20
34.333791852875379
 30
0.0
 40
0.5
  0
CIRCLE
  5
32F
  8
DATA
  6
CONTINUOUS
 62
     7
 10
99.912451720503313
 20
36.543779977562743
 30
0.0
 40
0.5
  0
CIRCLE
  5
330
  8
DATA
  6
CONTINUOUS
 62
     7
 10
104.2875482794971
 20
36.543779977562743
 30
0.0
 40
0.5
  0
CIRCLE
  5
331
  8
DATA
  6
CONTINUOUS
 62
     7
 10
106.0882056260061
 20
34.333791852875379
 30
0.0
 40
0.5
  0
CIRCLE
  5
332
  8
DATA
  6
CONTINUOUS
 62
     7
 10
28.0
 20
43.900000000000198
 30
0.0
 40
3.5
  0
LINE
  5
333
  8
DATA
  6
CONTINUOUS
 62
     7
 10
15.89999999999997
 20
51.900000000000261
 30
0.0
 11
8.3999999999999773
 21
51.900000000000261
 31
0.0
  0
LINE
  5
334
  8
DATA
  6
CONTINUOUS
 62
     7
 10
14.14999999999997
 20
48.900000000000247
 30
0.0
 11
10.14999999999997
 21
48.900000000000247
 31
0.0
  0
LINE
  5
335
  8
DATA
  6
CONTINUOUS
 62
     7
 10
10.14999999999997
 20
51.900000000000261
 30
0.0
 11
10.14999999999997
 21
48.900000000000247
 31
0.0
  0
LINE
  5
336
  8
DATA
  6
CONTINUOUS
 62
     7
 10
14.14999999999997
 20
51.900000000000261
 30
0.0
 11
14.14999999999997
 21
48.900000000000247
 31
0.0
  0
LINE
  5
337
  8
DATA
  6
CONTINUOUS
 62
     7
 10
15.89999999999997
 20
41.900000000000212
 30
0.0
 11
8.3999999999999773
 21
41.900000000000212
 31
0.0
  0
LINE
  5
338
  8
DATA
  6
CONTINUOUS
 62
     7
 10
10.14999999999997
 20
41.900000000000212
 30
0.0
 11
10.14999999999997
 21
40.400000000000212
 31
0.0
  0
LINE
  5
339
  8
DATA
  6
CONTINUOUS
 62
     7
 10
14.14999999999997
 20
41.900000000000212
 30
0.0
 11
14.14999999999997
 21
40.400000000000212
 31
0.0
  0
LINE
  5
33A
  8
DATA
  6
CONTINUOUS
 62
     7
 10
10.14999999999997
 20
40.400000000000212
 30
0.0
 11
14.14999999999997
 21
40.400000000000212
 31
0.0
  0
TEXT
  5
33B
  8
DATA
 62
     7
 10
14.691681333726249
 20
54.476707587431498
 30
0.0
 40
1.873167317708333
  1
LIFT
 50
180.0
 11
14.691681333726249
 21
52.603540269723169
 31
0.0
 73
     3
  0
TEXT
  5
33C
  8
DATA
 62
     7
 10
34.012451170128891
 20
59.310272109838301
 30
0.0
 40
1.873167317708333
  1
GROUND LIFT
 50
180.0
 11
34.012451170128891
 21
57.437104792129958
 31
0.0
 73
     3
  0
TEXT
  5
33D
  8
DATA
 62
     7
 10
66.845146298280156
 20
59.740606985933582
 30
0.0
 40
2.4432617187500001
  1
OUTPUT
 50
180.0
 11
66.845146298280156
 21
57.297345267183587
 31
0.0
 73
     3
  0
TEXT
  5
33E
  8
DATA
 62
     7
 10
106.0353956207307
 20
59.725836877843889
 30
0.0
 40
2.4432617187500001
  1
INPUT
 50
180.0
 11
106.0353956207307
 21
57.282575159093902
 31
0.0
 73
     3
  0
TEXT
  5
33F
  8
DATA
 62
     7
 10
157.7845120105238
 20
44.951472857747582
 30
0.0
 40
1.873167317708333
  1
110-120V～50/60Hz、120mA
 50
180.0
 11
157.7845120105238
 21
43.078305540039253
 31
0.0
 73
     3
  0
TEXT
  5
340
  8
DATA
 62
     7
 10
156.83737705098471
 20
23.269062074355741
 30
0.0
 40
1.873167317708333
  1
210-240V～50/60Hz、60mA
 50
180.0
 11
156.83737705098471
 21
21.395894756647401
 31
0.0
 73
     3
  0
TEXT
  5
341
  8
DATA
 62
     7
 10
189.09969693287621
 20
59.76460864977404
 30
0.0
 40
2.4432617187500001
  1
FUSE:T 125mA/250V
 50
180.0
 11
189.09969693287621
 21
57.321346931024053
 31
0.0
 73
     3
  0
TEXT
  5
342
  8
DATA
 62
     7
 10
212.68309053148391
 20
59.76460864977404
 30
0.0
 40
2.4432617187500001
  1
POWER
 50
180.0
 11
212.68309053148391
 21
57.321346931024053
 31
0.0
 73
     3
  0
POLYLINE
  5
343
  8
DATA
  6
CONTINUOUS
 62
     7
 66
     1
 10
0.0
 20
0.0
 30
0.0
  0
VERTEX
  5
4A5
  8
DATA
  6
CONTINUOUS
 62
     7
 10
179.09999999999999
 20
43.336031975717908
 30
0.0
  0
VERTEX
  5
4A6
  8
DATA
  6
CONTINUOUS
 62
     7
 10
182.59999999999999
 20
43.336031975717908
 30
0.0
  0
VERTEX
  5
4A7
  8
DATA
  6
CONTINUOUS
 62
     7
 10
182.59999999999999
 20
39.336031975717908
 30
0.0
  0
VERTEX
  5
4A8
  8
DATA
  6
CONTINUOUS
 62
     7
 10
179.09999999999999
 20
39.336031975717908
 30
0.0
  0
SEQEND
  5
4A9
  8
DATA
  6
CONTINUOUS
 62
     7
  0
POLYLINE
  5
34A
  8
DATA
  6
CONTINUOUS
 62
     7
 66
     1
 10
0.0
 20
0.0
 30
0.0
  0
VERTEX
  5
4AA
  8
DATA
  6
CONTINUOUS
 62
     7
 10
172.09999999999999
 20
39.336031975717908
 30
0.0
  0
VERTEX
  5
4AB
  8
DATA
  6
CONTINUOUS
 62
     7
 10
168.59999999999999
 20
39.336031975717908
 30
0.0
  0
VERTEX
  5
4AC
  8
DATA
  6
CONTINUOUS
 62
     7
 10
168.59999999999999
 20
43.336031975717908
 30
0.0
  0
VERTEX
  5
4AD
  8
DATA
  6
CONTINUOUS
 62
     7
 10
172.09999999999999
 20
43.336031975717908
 30
0.0
  0
SEQEND
  5
4AE
  8
DATA
  6
CONTINUOUS
 62
     7
  0
LINE
  5
351
  8
DATA
  6
CONTINUOUS
 62
     7
 10
172.09999999999999
 20
42.745227071088138
 30
0.0
 11
179.09999999999999
 21
42.745227071088138
 31
0.0
  0
LINE
  5
352
  8
DATA
  6
CONTINUOUS
 62
     7
 10
172.09999999999999
 20
39.926836880347651
 30
0.0
 11
179.09999999999999
 21
39.926836880347651
 31
0.0
  0
LINE
  5
353
  8
DATA
  6
CONTINUOUS
 62
     7
 10
172.09999999999999
 20
42.745227071088138
 30
0.0
 11
172.09999999999999
 21
43.336031975717908
 31
0.0
  0
LINE
  5
354
  8
DATA
  6
CONTINUOUS
 62
     7
 10
172.09999999999999
 20
39.926836880347651
 30
0.0
 11
172.09999999999999
 21
39.336031975717908
 31
0.0
  0
LINE
  5
355
  8
DATA
  6
CONTINUOUS
 62
     7
 10
179.09999999999999
 20
39.926836880347651
 30
0.0
 11
179.09999999999999
 21
39.336031975717908
 31
0.0
  0
LINE
  5
356
  8
DATA
  6
CONTINUOUS
 62
     7
 10
179.09999999999999
 20
42.745227071088138
 30
0.0
 11
179.09999999999999
 21
43.336031975717908
 31
0.0
  0
LINE
  5
357
  8
DATA
  6
CONTINUOUS
 62
     7
 10
172.09999999999999
 20
39.926836880347651
 30
0.0
 11
172.09999999999999
 21
42.745227071088138
 31
0.0
  0
LINE
  5
358
  8
DATA
  6
CONTINUOUS
 62
     7
 10
179.09999999999999
 20
42.745227071088138
 30
0.0
 11
179.09999999999999
 21
39.926836880347651
 31
0.0
  0
TEXT
  5
359
  8
DATA
 62
     7
 10
16.209439992604981
 20
44.509735328424917
 30
0.0
 40
1.873167317708333
  1
GROUND 
 50
180.0
 11
16.209439992604981
 21
42.63656801071658
 31
0.0
 73
     3
  0
LINE
  5
35A
  8
DATA
  6
CONTINUOUS
 62
     7
 10
95.664068528904053
 20
60.192245660798378
 30
0.0
 11
93.814068528904031
 21
58.342245660798312
 31
0.0
  0
LINE
  5
35B
  8
DATA
  6
CONTINUOUS
 62
     7
 10
95.664068528904053
 20
60.192245660798378
 30
0.0
 11
94.424068528904044
 21
59.476331327003209
 31
0.0
  0
LINE
  5
35C
  8
DATA
  6
CONTINUOUS
 62
     7
 10
95.664068528904053
 20
60.192245660798378
 30
0.0
 11
94.948154195108927
 21
58.952245660798333
 31
0.0
  0
LINE
  5
35D
  8
DATA
  6
CONTINUOUS
 62
     7
 10
93.814068528904031
 20
58.342245660798312
 30
0.0
 11
95.064068528904158
 21
58.342245660798312
 31
0.0
  0
LINE
  5
35E
  8
DATA
  6
CONTINUOUS
 62
     7
 10
95.064068528904031
 20
58.342245660798369
 30
0.0
 11
93.138892350887986
 21
56.417069482782317
 31
0.0
  0
LINE
  5
35F
  8
DATA
  6
CONTINUOUS
 62
     7
 10
109.42743453101301
 20
60.192245660798378
 30
0.0
 11
107.5774345310129
 21
58.342245660798312
 31
0.0
  0
LINE
  5
360
  8
DATA
  6
CONTINUOUS
 62
     7
 10
109.42743453101301
 20
60.192245660798378
 30
0.0
 11
108.1874345310129
 21
59.476331327003209
 31
0.0
  0
LINE
  5
361
  8
DATA
  6
CONTINUOUS
 62
     7
 10
109.42743453101301
 20
60.192245660798378
 30
0.0
 11
108.71152019721779
 21
58.952245660798333
 31
0.0
  0
LINE
  5
362
  8
DATA
  6
CONTINUOUS
 62
     7
 10
107.5774345310129
 20
58.342245660798312
 30
0.0
 11
108.8274345310129
 21
58.342245660798312
 31
0.0
  0
LINE
  5
363
  8
DATA
  6
CONTINUOUS
 62
     7
 10
108.8274345310129
 20
58.342245660798369
 30
0.0
 11
106.9022583529969
 21
56.417069482782317
 31
0.0
  0
LINE
  5
364
  8
DATA
  6
CONTINUOUS
 62
     7
 10
97.300000000000054
 20
-48.051659891525098
 30
0.0
 11
97.300000000000054
 21
-48.753170585662872
 31
0.0
  0
LINE
  5
365
  8
DATA
  6
CONTINUOUS
 62
     7
 10
106.89999999999991
 20
-48.051659891525098
 30
0.0
 11
106.89999999999991
 21
-48.753170585662872
 31
0.0
  0
LINE
  5
366
  8
DATA
  6
CONTINUOUS
 62
     7
 10
97.300000000000054
 20
-48.051659891525098
 30
0.0
 11
106.89999999999991
 21
-48.051659891525098
 31
0.0
  0
LINE
  5
367
  8
DATA
  6
CONTINUOUS
 62
     7
 10
99.399999999999963
 20
-48.753170585662872
 30
0.0
 11
99.399999999999963
 21
-48.999999999999488
 31
0.0
  0
LINE
  5
368
  8
DATA
  6
CONTINUOUS
 62
     7
 10
104.7999999999999
 20
-48.753170585662872
 30
0.0
 11
104.7999999999999
 21
-48.999999999999488
 31
0.0
  0
LINE
  5
369
  8
DATA
  6
CONTINUOUS
 62
     7
 10
24.5
 20
-48.499999999999488
 30
0.0
 11
24.5
 21
-48.999999999999488
 31
0.0
  0
LINE
  5
36A
  8
DATA
  6
CONTINUOUS
 62
     7
 10
31.5
 20
-48.499999999999488
 30
0.0
 11
31.5
 21
-48.999999999999488
 31
0.0
  0
LINE
  5
36B
  8
DATA
  6
CONTINUOUS
 62
     7
 10
31.5
 20
-48.499999999999488
 30
0.0
 11
24.5
 21
-48.499999999999488
 31
0.0
  0
LINE
  5
36C
  8
DATA
  6
CONTINUOUS
 62
     7
 10
97.300000000000054
 20
-48.753170585662872
 30
0.0
 11
106.89999999999991
 21
-48.753170585662872
 31
0.0
  0
LINE
  5
36D
  8
DATA
  6
CONTINUOUS
 62
     7
 10
203.59999999999999
 20
-48.499999999999488
 30
0.0
 11
203.59999999999999
 21
-48.999999999999488
 31
0.0
  0
LINE
  5
36E
  8
DATA
  6
CONTINUOUS
 62
     7
 10
213.59999999999999
 20
-48.499999999999488
 30
0.0
 11
213.59999999999999
 21
-48.999999999999488
 31
0.0
  0
LINE
  5
36F
  8
DATA
  6
CONTINUOUS
 62
     7
 10
203.59999999999999
 20
-48.999999999999488
 30
0.0
 11
213.59999999999999
 21
-48.999999999999488
 31
0.0
  0
LINE
  5
370
  8
DATA
  6
CONTINUOUS
 62
     7
 10
203.59999999999999
 20
-48.499999999999488
 30
0.0
 11
213.59999999999999
 21
-48.499999999999488
 31
0.0
  0
TEXT
  5
371
  8
DATA
 62
     7
 10
79.301956741898152
 20
-465.60628255208343
 30
0.0
 40
13.57367621527778
  1
電源ユニット
 72
     1
 11
125.0
 21
-458.81944444444451
 31
0.0
 73
     2
  0
LINE
  5
372
  8
DATA
  6
CONTINUOUS
 62
     7
 10
62.5
 20
-475.0
 30
0.0
 11
187.5
 21
-475.0
 31
0.0
  0
TEXT
  5
373
  8
DATA
 62
     7
 10
250.0
 20
-543.96828999999991
 30
0.0
 40
12.21630859375
  1
AKG
 11
250.0
 21
-531.75198140624991
 31
0.0
 73
     3
  0
TEXT
  5
374
  8
DATA
 62
     7
 10
237.5
 20
-561.3530649999999
 30
0.0
 40
8.1442057291666661
  1
サイドアドレス型マイクロホン
 11
237.5
 21
-553.20885927083316
 31
0.0
 73
     3
  0
TEXT
  5
375
  8
DATA
 62
     7
 10
250.0
 20
-580.2182899999998
 30
0.0
 40
12.21630859375
  1
P820 TUBE
 11
250.0
 21
-568.0019814062498
 31
0.0
 73
     3
  0
LINE
  5
376
  8
DATA
  6
CONTINUOUS
 62
     7
 10
-327.0
 20
-328.0
 30
0.0
 11
-327.0
 21
-225.0
 31
0.0
  0
LINE
  5
377
  8
DATA
  6
CONTINUOUS
 62
     7
 10
-327.0
 20
-221.40000000000001
 30
0.0
 11
-327.0
 21
-148.6999999999999
 31
0.0
  0
LINE
  5
378
  8
DATA
  6
CONTINUOUS
 62
     7
 10
-273.0
 20
-148.6999999999999
 30
0.0
 11
-273.0
 21
-221.40000000000001
 31
0.0
  0
LINE
  5
379
  8
DATA
  6
CONTINUOUS
 62
     7
 10
-273.0
 20
-225.0
 30
0.0
 11
-273.0
 21
-328.0
 31
0.0
  0
LINE
  5
37A
  8
DATA
  6
CONTINUOUS
 62
     7
 10
-290.5
 20
-350.0
 30
0.0
 11
-309.5
 21
-350.0
 31
0.0
  0
LINE
  5
37B
  8
DATA
  6
CONTINUOUS
 62
     7
 10
-318.75
 20
-343.0
 30
0.0
 11
-281.25
 21
-343.0
 31
0.0
  0
LINE
  5
37C
  8
DATA
  6
CONTINUOUS
 62
     7
 10
-309.5
 20
-350.0
 30
0.0
 11
-309.5
 21
-343.0
 31
0.0
  0
LINE
  5
37D
  8
DATA
  6
CONTINUOUS
 62
     7
 10
-290.5
 20
-343.0
 30
0.0
 11
-290.5
 21
-350.0
 31
0.0
  0
LINE
  5
37E
  8
DATA
  6
CONTINUOUS
 62
     7
 10
-318.75
 20
-343.0
 30
0.0
 11
-327.0
 21
-328.0
 31
0.0
  0
LINE
  5
37F
  8
DATA
  6
CONTINUOUS
 62
     7
 10
-327.0
 20
-328.0
 30
0.0
 11
-273.0
 21
-328.0
 31
0.0
  0
LINE
  5
380
  8
DATA
  6
CONTINUOUS
 62
     7
 10
-281.25
 20
-343.0
 30
0.0
 11
-273.0
 21
-328.0
 31
0.0
  0
LINE
  5
381
  8
DATA
  6
CONTINUOUS
 62
     7
 10
-327.0
 20
-225.0
 30
0.0
 11
-273.0
 21
-225.0
 31
0.0
  0
LINE
  5
382
  8
DATA
  6
CONTINUOUS
 62
     7
 10
-327.0
 20
-221.40000000000001
 30
0.0
 11
-273.0
 21
-221.40000000000001
 31
0.0
  0
LINE
  5
383
  8
DATA
  6
CONTINUOUS
 62
     7
 10
-327.0
 20
-211.40000000000001
 30
0.0
 11
-273.0
 21
-211.40000000000001
 31
0.0
  0
LINE
  5
384
  8
DATA
  6
CONTINUOUS
 62
     7
 10
-327.0
 20
-153.39999999999989
 30
0.0
 11
-273.0
 21
-153.39999999999989
 31
0.0
  0
LINE
  5
385
  8
DATA
  6
CONTINUOUS
 62
     7
 10
-325.5
 20
-147.1999999999999
 30
0.0
 11
-274.5
 21
-147.1999999999999
 31
0.0
  0
LINE
  5
386
  8
DATA
  6
CONTINUOUS
 62
     7
 10
-326.0
 20
-225.0
 30
0.0
 11
-326.0
 21
-221.40000000000001
 31
0.0
  0
LINE
  5
387
  8
DATA
  6
CONTINUOUS
 62
     7
 10
-274.0
 20
-225.0
 30
0.0
 11
-274.0
 21
-221.40000000000001
 31
0.0
  0
CIRCLE
  5
388
  8
DATA
  6
CONTINUOUS
 62
     7
 10
-300.0
 20
-80.0
 30
0.0
 40
27.0
  0
ARC
  5
389
  8
DATA
  6
CONTINUOUS
 62
     7
 10
-299.72228510490532
 20
-223.2329949519127
 30
0.0
 40
85.233447390304079
 50
90.186686330762015
 51
96.722651633335417
  0
ARC
  5
38A
  8
DATA
  6
CONTINUOUS
 62
     7
 10
-315.13550903779281
 20
-151.1602839086631
 30
0.0
 40
9.7089159362038373
 50
124.9689236861709
 51
155.92690530441411
  0
ARC
  5
38B
  8
DATA
  6
CONTINUOUS
 62
     7
 10
-306.93473011764092
 20
-160.58001011195341
 30
0.0
 40
22.16758687149397
 50
97.165963038671151
 51
128.38655343807559
  0
ARC
  5
38C
  8
DATA
  6
CONTINUOUS
 62
     7
 10
-300.27771489509479
 20
-223.2329949519127
 30
0.0
 40
85.233447390304008
 50
83.277348366664484
 51
89.813313669250064
  0
ARC
  5
38D
  8
DATA
  6
CONTINUOUS
 62
     7
 10
-284.8644909622073
 20
-151.1602839086631
 30
0.0
 40
9.7089159362038249
 50
24.073094695585599
 51
55.031076313829097
  0
ARC
  5
38E
  8
DATA
  6
CONTINUOUS
 62
     7
 10
-293.06526988235919
 20
-160.58001011195341
 30
0.0
 40
22.167586871493949
 50
51.613446561924377
 51
82.834036961328835
  0
CIRCLE
  5
38F
  8
DATA
  6
CONTINUOUS
 62
     7
 10
-300.0
 20
-80.0
 30
0.0
 40
24.0
  0
TEXT
  5
390
  8
DATA
 62
     7
 10
-305.65693830992763
 20
-314.97652807797709
 30
0.0
 40
5.9724175347222221
  1
AKG
 11
-305.65693830992763
 21
-309.00411054325491
 31
0.0
 73
     3
  0
TEXT
  5
391
  8
DATA
 62
     7
 10
-306.66039249238207
 20
-318.64788594581398
 30
0.0
 40
2.2803776041666661
  1
P820 TUBE
 11
-306.66039249238207
 21
-316.36750834164729
 31
0.0
 73
     3
  0
CIRCLE
  5
392
  8
DATA
  6
CONTINUOUS
 62
     7
 10
-300.0
 20
-274.0
 30
0.0
 40
9.0
  0
LINE
  5
393
  8
DATA
  6
CONTINUOUS
 62
     7
 10
-324.0
 20
-153.4000000000002
 30
0.0
 11
-324.0
 21
-211.40000000000001
 31
0.0
  0
LINE
  5
394
  8
DATA
  6
CONTINUOUS
 62
     7
 10
-276.0
 20
-153.4000000000002
 30
0.0
 11
-276.0
 21
-211.40000000000001
 31
0.0
  0
CIRCLE
  5
395
  8
DATA
  6
CONTINUOUS
 62
     7
 10
-300.0
 20
-399.9999999999996
 30
0.0
 40
27.0
  0
CIRCLE
  5
396
  8
DATA
  6
CONTINUOUS
 62
     7
 10
-300.0
 20
-399.9999999999996
 30
0.0
 40
9.5
  0
CIRCLE
  5
397
  8
DATA
  6
CONTINUOUS
 62
     7
 10
-300.0
 20
-399.9999999999996
 30
0.0
 40
18.75
  0
ARC
  5
398
  8
DATA
  6
CONTINUOUS
 62
     7
 10
-300.0000000001113
 20
-399.99999999999602
 30
0.0
 40
14.999999999888701
 50
183.82255372931601
 51
356.17744627068402
  0
ARC
  5
399
  8
DATA
  6
CONTINUOUS
 62
     7
 10
-300.0000000001113
 20
-399.99999999999602
 30
0.0
 40
14.999999999888811
 50
3.8225537292892291
 51
176.1774462707107
  0
LINE
  5
39A
  8
DATA
  6
CONTINUOUS
 62
     7
 10
-314.96662954709581
 20
-398.9999999999996
 30
0.0
 11
-316.90000000000009
 21
-398.9999999999996
 31
0.0
  0
LINE
  5
39B
  8
DATA
  6
CONTINUOUS
 62
     7
 10
-314.96662954709581
 20
-400.9999999999996
 30
0.0
 11
-316.90000000000009
 21
-400.9999999999996
 31
0.0
  0
LINE
  5
39C
  8
DATA
  6
CONTINUOUS
 62
     7
 10
-316.90000000000009
 20
-400.9999999999996
 30
0.0
 11
-316.90000000000009
 21
-398.9999999999996
 31
0.0
  0
LINE
  5
39D
  8
DATA
  6
CONTINUOUS
 62
     7
 10
-285.03337045290431
 20
-398.9999999999996
 30
0.0
 11
-283.10000000000002
 21
-398.9999999999996
 31
0.0
  0
LINE
  5
39E
  8
DATA
  6
CONTINUOUS
 62
     7
 10
-285.03337045290431
 20
-400.9999999999996
 30
0.0
 11
-283.10000000000002
 21
-400.9999999999996
 31
0.0
  0
LINE
  5
39F
  8
DATA
  6
CONTINUOUS
 62
     7
 10
-283.10000000000002
 20
-400.9999999999996
 30
0.0
 11
-283.10000000000002
 21
-398.9999999999996
 31
0.0
  0
ARC
  5
3A0
  8
DATA
  6
CONTINUOUS
 62
     7
 10
-299.99999999999932
 20
-399.99999999999909
 30
0.0
 40
7.9499999999990889
 50
56.628290337690203
 51
42.469380442253772
  0
CIRCLE
  5
3A1
  8
DATA
  6
CONTINUOUS
 62
     7
 10
-300.0000000000004
 20
-400.00000000000171
 30
0.0
 40
0.5
  0
CIRCLE
  5
3A2
  8
DATA
  6
CONTINUOUS
 62
     7
 10
-296.16729950754308
 20
-398.16345244136971
 30
0.0
 40
0.5
  0
CIRCLE
  5
3A3
  8
DATA
  6
CONTINUOUS
 62
     7
 10
-303.83270049245721
 20
-398.16345244137
 30
0.0
 40
0.5
  0
CIRCLE
  5
3A4
  8
DATA
  6
CONTINUOUS
 62
     7
 10
-296.01179437399389
 20
-401.43379185287478
 30
0.0
 40
0.5
  0
CIRCLE
  5
3A5
  8
DATA
  6
CONTINUOUS
 62
     7
 10
-297.81245172050342
 20
-403.64377997756219
 30
0.0
 40
0.5
  0
CIRCLE
  5
3A6
  8
DATA
  6
CONTINUOUS
 62
     7
 10
-302.18754827949721
 20
-403.64377997756219
 30
0.0
 40
0.5
  0
CIRCLE
  5
3A7
  8
DATA
  6
CONTINUOUS
 62
     7
 10
-303.98820562600622
 20
-401.43379185287478
 30
0.0
 40
0.5
  0
ARC
  5
3A8
  8
DATA
  6
CONTINUOUS
 62
     7
 10
-295.01110361711488
 20
-394.14866120261291
 30
0.0
 40
0.9999999999999204
 50
331.08380674933329
 51
128.0138640306221
  0
ARC
  5
3A9
  8
DATA
  6
CONTINUOUS
 62
     7
 10
-325.5
 20
-148.6999999999999
 30
0.0
 40
1.5
 50
90.0
 51
180.0
  0
ARC
  5
3AA
  8
DATA
  6
CONTINUOUS
 62
     7
 10
-274.5
 20
-148.6999999999999
 30
0.0
 40
1.5
 50
0.0
 51
90.0
  0
LINE
  5
3AB
  8
DATA
  6
CONTINUOUS
 62
     7
 10
-227.00000000000011
 20
-328.0
 30
0.0
 11
-227.00000000000011
 21
-225.0
 31
0.0
  0
LINE
  5
3AC
  8
DATA
  6
CONTINUOUS
 62
     7
 10
-227.00000000000011
 20
-221.40000000000001
 30
0.0
 11
-227.00000000000011
 21
-211.40000000000001
 31
0.0
  0
LINE
  5
3AD
  8
DATA
  6
CONTINUOUS
 62
     7
 10
-227.00000000000011
 20
-153.40000000000009
 30
0.0
 11
-227.00000000000011
 21
-148.6999999999999
 31
0.0
  0
LINE
  5
3AE
  8
DATA
  6
CONTINUOUS
 62
     7
 10
-173.00000000000011
 20
-148.6999999999999
 30
0.0
 11
-173.00000000000011
 21
-153.40000000000009
 31
0.0
  0
LINE
  5
3AF
  8
DATA
  6
CONTINUOUS
 62
     7
 10
-173.00000000000011
 20
-211.39999999999981
 30
0.0
 11
-173.00000000000011
 21
-221.40000000000001
 31
0.0
  0
LINE
  5
3B0
  8
DATA
  6
CONTINUOUS
 62
     7
 10
-173.00000000000011
 20
-225.0
 30
0.0
 11
-173.00000000000011
 21
-328.0
 31
0.0
  0
LINE
  5
3B1
  8
DATA
  6
CONTINUOUS
 62
     7
 10
-190.50000000000011
 20
-350.0
 30
0.0
 11
-209.50000000000011
 21
-350.0
 31
0.0
  0
LINE
  5
3B2
  8
DATA
  6
CONTINUOUS
 62
     7
 10
-218.75000000000011
 20
-343.0
 30
0.0
 11
-181.25000000000011
 21
-343.0
 31
0.0
  0
LINE
  5
3B3
  8
DATA
  6
CONTINUOUS
 62
     7
 10
-209.50000000000011
 20
-350.0
 30
0.0
 11
-209.50000000000011
 21
-343.0
 31
0.0
  0
LINE
  5
3B4
  8
DATA
  6
CONTINUOUS
 62
     7
 10
-190.50000000000011
 20
-343.0
 30
0.0
 11
-190.50000000000011
 21
-350.0
 31
0.0
  0
LINE
  5
3B5
  8
DATA
  6
CONTINUOUS
 62
     7
 10
-218.75000000000011
 20
-343.0
 30
0.0
 11
-227.00000000000011
 21
-328.0
 31
0.0
  0
LINE
  5
3B6
  8
DATA
  6
CONTINUOUS
 62
     7
 10
-227.00000000000011
 20
-328.0
 30
0.0
 11
-173.00000000000011
 21
-328.0
 31
0.0
  0
LINE
  5
3B7
  8
DATA
  6
CONTINUOUS
 62
     7
 10
-181.25000000000011
 20
-343.0
 30
0.0
 11
-173.00000000000011
 21
-328.0
 31
0.0
  0
LINE
  5
3B8
  8
DATA
  6
CONTINUOUS
 62
     7
 10
-227.00000000000011
 20
-225.0
 30
0.0
 11
-173.00000000000011
 21
-225.0
 31
0.0
  0
LINE
  5
3B9
  8
DATA
  6
CONTINUOUS
 62
     7
 10
-227.00000000000011
 20
-221.40000000000001
 30
0.0
 11
-173.00000000000011
 21
-221.40000000000001
 31
0.0
  0
LINE
  5
3BA
  8
DATA
  6
CONTINUOUS
 62
     7
 10
-227.00000000000011
 20
-211.40000000000001
 30
0.0
 11
-173.00000000000011
 21
-211.40000000000001
 31
0.0
  0
LINE
  5
3BB
  8
DATA
  6
CONTINUOUS
 62
     7
 10
-227.00000000000011
 20
-153.39999999999989
 30
0.0
 11
-204.8000000000001
 21
-153.39999999999989
 31
0.0
  0
LINE
  5
3BC
  8
DATA
  6
CONTINUOUS
 62
     7
 10
-195.1999999880791
 20
-153.39999999999989
 30
0.0
 11
-173.00000000000011
 21
-153.39999999999989
 31
0.0
  0
LINE
  5
3BD
  8
DATA
  6
CONTINUOUS
 62
     7
 10
-225.50000000000011
 20
-147.1999999999999
 30
0.0
 11
-174.50000000000011
 21
-147.1999999999999
 31
0.0
  0
LINE
  5
3BE
  8
DATA
  6
CONTINUOUS
 62
     7
 10
-226.00000000000011
 20
-225.0
 30
0.0
 11
-226.00000000000011
 21
-221.40000000000001
 31
0.0
  0
LINE
  5
3BF
  8
DATA
  6
CONTINUOUS
 62
     7
 10
-174.00000000000011
 20
-225.0
 30
0.0
 11
-174.00000000000011
 21
-221.40000000000001
 31
0.0
  0
ARC
  5
3C0
  8
DATA
  6
CONTINUOUS
 62
     7
 10
-199.72228510490521
 20
-223.2329949519127
 30
0.0
 40
85.233447390304079
 50
90.186686330762043
 51
96.722651633335417
  0
ARC
  5
3C1
  8
DATA
  6
CONTINUOUS
 62
     7
 10
-215.13550903779279
 20
-151.1602839086631
 30
0.0
 40
9.7089159362038053
 50
124.9689236861706
 51
155.9269053044143
  0
ARC
  5
3C2
  8
DATA
  6
CONTINUOUS
 62
     7
 10
-206.9347301176409
 20
-160.58001011195341
 30
0.0
 40
22.16758687149397
 50
97.165963038671151
 51
128.38655343807559
  0
ARC
  5
3C3
  8
DATA
  6
CONTINUOUS
 62
     7
 10
-200.27771489509479
 20
-223.2329949519127
 30
0.0
 40
85.233447390304008
 50
83.277348366664484
 51
89.813313669250064
  0
ARC
  5
3C4
  8
DATA
  6
CONTINUOUS
 62
     7
 10
-184.86449096220741
 20
-151.1602839086631
 30
0.0
 40
9.7089159362037734
 50
24.073094695585731
 51
55.031076313829381
  0
ARC
  5
3C5
  8
DATA
  6
CONTINUOUS
 62
     7
 10
-193.06526988235919
 20
-160.58001011195341
 30
0.0
 40
22.167586871493949
 50
51.613446561924377
 51
82.834036961328835
  0
ARC
  5
3C6
  8
DATA
  6
CONTINUOUS
 62
     7
 10
-225.50000000000011
 20
-148.6999999999999
 30
0.0
 40
1.5
 50
90.0
 51
180.0
  0
ARC
  5
3C7
  8
DATA
  6
CONTINUOUS
 62
     7
 10
-174.50000000000011
 20
-148.6999999999999
 30
0.0
 40
1.5
 50
0.0
 51
90.0
  0
LINE
  5
3C8
  8
DATA
  6
CONTINUOUS
 62
     7
 10
-224.00000000000011
 20
-211.40000000000001
 30
0.0
 11
-224.00000000000011
 21
-153.39999999999989
 31
0.0
  0
LINE
  5
3C9
  8
DATA
  6
CONTINUOUS
 62
     7
 10
-176.00000000000011
 20
-153.39999999999989
 30
0.0
 11
-176.00000000000011
 21
-211.40000000000001
 31
0.0
  0
LINE
  5
3CA
  8
DATA
  6
CONTINUOUS
 62
     7
 10
-204.00000000000011
 20
-211.40000000000001
 30
0.0
 11
-204.00000000000011
 21
-154.1999999999999
 31
0.0
  0
LINE
  5
3CB
  8
DATA
  6
CONTINUOUS
 62
     7
 10
-196.00000000000011
 20
-154.20000001192091
 30
0.0
 11
-196.00000000000011
 21
-211.40000000000001
 31
0.0
  0
ARC
  5
3CC
  8
DATA
  6
CONTINUOUS
 62
     7
 10
-204.8000000000001
 20
-154.1999999999999
 30
0.0
 40
0.8000000000000113
 50
0.0
 51
90.0
  0
ARC
  5
3CD
  8
DATA
  6
CONTINUOUS
 62
     7
 10
-195.1999999880791
 20
-154.20000001192091
 30
0.0
 40
0.8000000119209291
 50
90.0
 51
180.0
  0
LINE
  5
3CE
  8
DATA
  6
CONTINUOUS
 62
     7
 10
-337.5
 20
-475.0
 30
0.0
 11
-212.5
 21
-475.0
 31
0.0
  0
TEXT
  5
3CF
  8
DATA
 62
     7
 10
-327.91666666666657
 20
-465.16944444444431
 30
0.0
 40
13.57367621527778
  1
マイクロホン
 11
-327.91666666666657
 21
-451.59576822916659
 31
0.0
 73
     3
  0
ENDSEC
  0
EOF
